>
 >
We Will Rise

We Will Rise Bass Tabs

Arch Enemy - We Will Rise chords, tabs, tablatures, lyrics

Guitar lessons | Add/correct | Request | Top 50 tabs Artists:  A B C D E F G H I J K L M N O P Q R S T U V W X Y Z 0-9

We Will Rise Bass Tabs – Arch Enemy

CD, Sheet music, Poster

Do you like We Will Rise? Share with your friends now
Bass TabsBass Tabs v2TabsTabs v2Tabs v3

WE WILL RISE (Bassline)
As recorded by Arch Enemy
(From the 2003 Album ANTHEMS OF REBELLION)

	

Words by Micheal Amott Music by Chirstopher Amott, Micheal Amott
Arranged by Laurien Woodgate

Gtr I (C F Bb Eb) - 'Sharlee D'angelo'

   Intro
    Q=114
   4/4
    Gtr I
    S S S S S S S S S S S S S S S S   S S S S S S S S S S S S S S S S
||----------------------------------|---------------------------------|
||o---------------------------------|---------------------------------|
||o---------------------------------|-3-3-3-3-3-3-3-3-3-3-3-3-3-3-3-3-|
||--0-0-0-0-0-0-0-0-0-0-0-0-0-0-0-0-|---------------------------------|


  1.,2.
  S S S S S S S S S S S S S S S S   S S S S S S S S S S S S S S S S  3x
|---------------------------------|----------------------------------||
|---------------------------------|---------------------------------o||
|-0-0-0-0-0-0-0-0-0-0-0-0-0-0-0-0-|-2-2-2-2-2-2-2-2-2-2-2-2-2-2-2-2-o||
|---------------------------------|----------------------------------||


  3.
  S S S S S S S S S S S S S S S S   S S S S S S S E S S S S S S S
|---------------------------------|--------------------------------|
|---------------------------------|--------------------------------|
|-0-0-0-0-0-0-0-0-0-0-0-0-0-0-0-0-|-2-2-2-2-2-2-2S6-6-6-6S9-9-9-9--|
|---------------------------------|--------------------------------|


 Verse
  $
  E E S E S E E S E S   E E S E S E E S E S   E E S E S E E S E S
|---------------------|---------------------|----------------------|
|---------------------|---------------------|----------------------|
|-7-7-7-7-7-7-7-7-7-7-|-3-3-3-3-3-3-3-3-3-3-|-0-0-0-0-0-0-0-0-0-0--|
|---------------------|---------------------|----------------------|


  E E S E S E E S E S   E E S E S E E S E S   E E S E S E E S E S
|---------------------|---------------------|----------------------|
|---------------------|---------------------|----------------------|
|---------------------|---------------------|-3-3-3-3-3-3-3-3-3-3--|
|-1-1-1-1-1-1-1-1-1-1-|-0-0-0-0-0-0-0-0-0-0-|----------------------|


  E E S E S E E S E S   E E S E S E E S E S   W
|---------------------|---------------------|------|
|---------------------|-3-3-3-3-3-3-3-3-3-0-|------|
|-0-0-0-0-0-0-0-0-0-0-|---------------------|------|
|---------------------|---------------------|------|


 Pre-Chorus
  W          W          W
|----------|----------|------|
|----------|----------|------|
|----------|----------|------|
|----------|----------|------|


  S S S S S S S S S S S S S S S S   S S S S S S S S S S S S S S S S
|---------------------------------|---------------------------------|
|---------------------------------|---------------------------------|
|-----------------------------5h8-|-----------------------------5h8-|
|-0-0-0-0-0-0-0-0-0-0-0-0-5h7-----|-0-0-0-0-0-0-0-0-0-0-0-0-5h7-----|


  S S S S S S S S S S S S S S S S   S S S S S S S S q  Q
|---------------------------------|-----------------------|
|---------------------------------|-----------------------|
|-----------------------------5h8-|-----------------------|
|-0-0-0-0-0-0-0-0-0-0-0-0-5h7-----|-0-0-0-0-0-0-0-0-0-----|


   Chorus
   4/4
    S S S S S S S S S S S S S S S S   S S S S S S S S S S S S S S S S
||----------------------------------|---------------------------------|
||o---------------------------------|---------------------------------|
||o---------------------------------|-3-3-3-3-3-3-3-3-3-3-3-3-3-3-3-3-|
||--0-0-0-0-0-0-0-0-0-0-0-0-0-0-0-0-|---------------------------------|


  1.
  S S S S S S S S S S S S S S S S   S S S S S S S S S S S S S S S S
|---------------------------------|----------------------------------||
|---------------------------------|---------------------------------o||
|-0-0-0-0-0-0-0-0-0-0-0-0-0-0-0-0-|-2-2-2-2-2-2-2-2-2-2-2-2-2-2-2-2-o||
|---------------------------------|----------------------------------||


  3.
                                                            D.S.
  S S S S S S S S S S S S S S S S   S S S S S S S E S S S S S S S
|---------------------------------|--------------------------------|
|---------------------------------|--------------------------------|
|-0-0-0-0-0-0-0-0-0-0-0-0-0-0-0-0-|-2-2-2-2-2-2-2S6-6-6-6S9-9-9-9--|
|---------------------------------|--------------------------------|


 Guitar Solo
   S  S  S  S  S  S  S  S  S  S  S  S  S  S  S  S
|-------------------------------------------------|
|-------------------------------------------------|
|-10-10-10-10-10-10-10-10-10-10-10-10-10-10-10-10-|
|-------------------------------------------------|


  S S S S S S S S S S S S S S S S
|---------------------------------|
|---------------------------------|
|-6-6-6-6-6-6-6-6-6-6-6-6-6-6-6-6-|
|---------------------------------|


  S S S S S S S S S S S S S S S S   S S S S S S S S S S S S S S S S
|---------------------------------|---------------------------------|
|---------------------------------|---------------------------------|
|-8-8-8-8-8-8-8-8-8-8-8-8-8-8-8-8-|-5-5-5-5-5-5-5-5-8-8-6-6-5-5-3-3-|
|---------------------------------|---------------------------------|


  S S S S S S S S S S S S S S S S   S S S S S S S S S S S S S S S S
|---------------------------------|---------------------------------|
|---------------------------------|---------------------------------|
|-3-3-3-3-3-3-3-3-3-3-3-3-3-3-3-3-|-6-6-6-6-6-6-6-6-6-6-6-6-6-6-6-6-|
|---------------------------------|---------------------------------|


  S S S S S S S S S S S S S S S S   S S S S S E S S S S S S S S S
|---------------------------------|--------------------------------|
|---------------------------------|--------------------------------|
|-8-8-8-8-8-8-8-8-8-8-8-8-8-8-8-8-|-5-5-5-5-5-5-5-8-8-8-8-8-8-8-8--|
|---------------------------------|--------------------------------|


  S S S S S S S S S S S S S S S S   S S S S S S S S S S S S S S S S
|---------------------------------|---------------------------------|
|---------------------------------|---------------------------------|
|-7-7-7-7-7-7-7-7-7-7-7-7-7-7-7-7-|-9-9-9-9-9-9-9-9-9-9-9-9-9-9-9-9-|
|---------------------------------|---------------------------------|


  S S S S S S S S S S S S S S S S   S S S S S S S S  S S S S S S S S
|---------------------------------|----------------------------------|
|---------------------------------|-----------------/9-9-9-9-9-9-9-9-|
|-3-3-3-3-3-3-3-3-3-3-3-3-3-3-3-3-|-2-2-2-2-2-2-2-2------------------|
|---------------------------------|----------------------------------|


  S S S S S S S S S S S S S S S S   S S S S S S S S S S S S S S S S
|-9-9-9-9-9-9-9-9-9-9-9-9-9-9-9-9-|-5-5-5-5-5-5-5-5-5-5-5-5-5-5-5-5-|
|---------------------------------|---------------------------------|
|---------------------------------|---------------------------------|
|---------------------------------|---------------------------------|


  S S S S S S S S S S S S S S S S   S S S S S S S S S S S S S S S S
|-7-7-7-7-7-7-7-7-7-7-7-7-7-7-7-7-|-4-4-4-4-4-4-4-4-7-7-7-7-7-7-7-7-|
|---------------------------------|---------------------------------|
|---------------------------------|---------------------------------|
|---------------------------------|---------------------------------|


   Pre-Chorus
    S S S S S S S S S E S S S S S   S S S S S S S S S E S S S S S   3x
||--------------------------------|---------------------------------||
||o-------------------------------|--------------------------------o||
||o---5---2-------------------5h7-|---8---5-------------------5h7--o||
||--0---0---0-0-0-1-x-0-0-5h7-----|-0---0---0-0-0-3-x-1-1-5h7-------||


  S S S S S S S S S E S S S S S   S S S S S S S E E. Q
|-------------------------------|-----------------------|
|-------------------------------|-----------------------|
|---5---2-------------------5h7-|---8---5---------------|
|-0---0---0-0-0-1-x-0-0-5h7-----|-0---0---0-0-0-3-1-----|


   Chorus
    S S S S S S S S S S S S S S S S   S S S S S S S S S S S S S S S S
||----------------------------------|----------------------------------|
||o---------------------------------|----------------------------------|
||o---------------------------------|-3-3-3-3-3-3-3-3-3-3-3-3-3-3-3-3--|
||--0-0-0-0-0-0-0-0-0-0-0-0-0-0-0-0-|----------------------------------|


  S S S S S S S S S S S S S S S S   S S S S S S S S S S S S S S S S
|---------------------------------|---------------------------------|
|---------------------------------|---------------------------------|
|-0-0-0-0-0-0-0-0-0-0-0-0-0-0-0-0-|-2-2-2-2-2-2-2-2-2-2-2-2-2-2-2-2-|
|---------------------------------|---------------------------------|


  S S S S S S S S S S S S S S S S   S S S S S S S S S S S S S S S S
|---------------------------------|---------------------------------|
|---------------------------------|---------------------------------|
|---------------------------------|-3-3-3-3-3-3-3-3-3-3-3-3-3-3-3-3-|
|-0-0-0-0-0-0-0-0-0-0-0-0-0-0-0-0-|---------------------------------|


  1.
  S S S S S S S S S S S S S S S S   S S S S S S S S  S  S  S  S  S  S S S
|---------------------------------|----------------------------------------||
|---------------------------------|---------------------------------------o||
|-0-0-0-0-0-0-0-0-0-0-0-0-0-0-0-0-|-2-2-2-2-2-2-2-2-14-14-12-12-10-10-9-9-o||
|---------------------------------|----------------------------------------||


  2.
  S S S S S S S S S S S S S S S S
|---------------------------------|
|---------------------------------|
|-0-0-0-0-0-0-0-0-0-0-0-0-0-0-0-0-|
|---------------------------------|


   S  S  S  S  S  S  S  S  S  S  S  S  S  S  S  S
|--------------------------------------------------|
|----------13-13-13-14-14-14-16-16-16-16-16-16-16\-|
|-14-14-14-----------------------------------------|
|--------------------------------------------------|


   Outro solo
    S S S S S S S S S S S S S S S S   S S S S S S S S S S S S S S S S
||----------------------------------|----------------------------------|
||o---------------------------------|----------------------------------|
||o---------------------------------|-3-3-3-3-3-3-3-3-3-3-3-3-3-3-3-3--|
||--0-0-0-0-0-0-0-0-0-0-0-0-0-0-0-0-|----------------------------------|


  S S S S S S S S S S S S S S S S   S S S S S S S S S S S S S S S S  4x
|---------------------------------|----------------------------------||
|---------------------------------|---------------------------------o||
|-0-0-0-0-0-0-0-0-0-0-0-0-0-0-0-0-|-2-2-2-2-2-2-2-2-2-2-2-2-2-2-2-2-o||
|---------------------------------|----------------------------------||


  S S S S S S S S S S S S S S S S   S S S S S S S S S S S S S S S S
|---------------------------------|---------------------------------*|
|---------------------------------|---------------------------------*|
|---------------------------------|-3-3-3-3-3-3-3-3-3-3-3-3-3-3-3-3-*|
|-0-0-0-0-0-0-0-0-0-0-0-0-0-0-0-0-|---------------------------------*|



Duration Legend
---------------
W - whole; H - half; Q - quarter; E - 8th; S - 16th; T - 32nd; X - 64th; a - acciaccatura
+ - note tied to previous; . - note dotted; .. - note double dotted
Uncapitalized letters represent notes that are staccato (1/2 duration)
Irregular groupings are notated above the duration line
Duration letters will always appear directly above the note/fret number it represents the
duration for.  Duration letters with no fret number below them represent rests.  Multi-
bar rests are notated in the form Wxn, where n is the number of bars to rest for.  Low
melody durations appear below the staff

Tablature Legend
----------------
 h   - hammer-on
 p   - pull-off
 b   - bend
 pb  - pre-bend
 r   - bend release (if no number after the r, then release immediately)
 /\  - slide into or out of (from/to "nowhere")
 s   - legato slide
 S   - shift slide
 - natural harmonic
[n]  - artificial harmonic
n(n) - tapped harmonic
 ~   - vibrato
 tr  - trill
 T   - tap
 TP  - trem. picking
 PM  - palm muting
\n/  - tremolo bar dip; n = amount to dip
 \n  - tremolo bar down
 n/  - tremolo bar up
/n\  - tremolo bar inverted dip
 =   - hold bend; also acts as connecting device for hammers/pulls
 <> - volume swell (louder/softer)
 x   - on rhythm slash represents muted slash
 o   - on rhythm slash represents single note slash

Misc Legend
-----------
 |  - bar
||  - double bar
||o - repeat start
o|| - repeat end
*|  - double bar (ending)
 :  - bar (freetime)
 $  - Segno
 &  - Coda
Tempo markers -  = BPM(8/16=s8/s16), where s8 = swing 8ths, s16 = swing 16ths





Comments


Popular Arch Enemy tabs & chords
Behind The Smile 1 Tabs
Enter The Machine 1 Tabs
I Am Legend Out For Blood Tabs
I Will Live Again Tabs
My Apocalypse Tabs
Nemesis 4 Tabs
Pilgrim Tabs
Savage Messiah Tabs
Silent Wars Tabs
We Will Rise 1 Tabs


Song lyrics



↑ Back to top | Tablatures and chords are parodies/interpretations of the original songs. You may use it for private study, scholarship, research or language learning purposes only
© 2014 AZChords.com Contact us | Privacy policy | DMCA | Add/correct tabs | Request tabs | Top 50 tabs