» » »

Snow Bound Tabs (ver.1)

Artists:  A B C D E F G H I J K L M N O P Q R S T U V W X Y Z # 

Snow Bound Tabs (ver.1)

Arch Enemy
Rating:
0/5 (0 votes)

Hard to play? Try these video lessons and learn fast.
                *updated* 11/30/2003


Use slight distortion throughout, its alot of fun to play 
when you get the timing right, and its just a really neat 
song period. Simple, maybe, but still kew. Also, for some fun,
you can add some wah. but not too much else ull kill it :D

Forgot to add a key for those that need it :/

h= Hammer-on       b= Bend half or 1 whole step (either one works)
p= Pull-off        *= note
/= slide up        \= slide down

|---------------------|
|---11--9-8-----------|
|-----------8---------| 2x 
|---------------------|
|---------------------|
|---------------------|

|-------------------------------|
|--11-9-8-----------------------|
|---------8-8h10p8-7\5h7b-5h7p5-|
|-------------------------------|
|-------------------------------|
|-------------------------------|

|------------13-11-10-10h11p10-----------------------
|-8-9--11-13------------------11-11h13p11h13b--------
|---------------------------------------------8h10b-8
|----------------------------------------------------
|----------------------------------------------------
|----------------------------------------------------

----------------------------------------------------|
----------------------------------------------------|
-8h10-8-10br-10br-10p8---8--------------------------|
----------------------10---10-----------------------|
------------------------------8-6-8b-8b-8p6---------|
--------------------------------------------8-------|

|------------------|
|--11-9-8----------|
|---------8--------| x1
|------------------|
|------------------|
|------------------|

|------------------|
|-11-9-8-----------|
|-x-----8*---------|
|-x----------------|
|------------------|
|------------------|

*hold the 8, and with your picking hand, strike a natural harmonic 
over the 19th fret on the same string (g/3rd)

|-------------------------------|
|--11-9-8-----------------------|
|---------8-8h10p8-7\5h7b-5h7p5-|
|-------------------------------| 
|-------------------------------|
|-------------------------------|

|------------------|
|--11-9-8----------|
|---------8--------| x3
|------------------|
|------------------|
|------------------|

|----------------------------------------|
|--11-9-8--------------------------------|
|---------8-8h10p8h10p8-7-5-7b-5h7p5h7*--|
|----------------------------------------| 
|----------------------------------------|
|----------------------------------------|

*basically for this just hammer on and pull off at a pretty fast 
rate until ur hand cant take it, or u decide it sounds cool enough.

Thats basically it, if you would like to comment on this, ty, help is appreciated
ill try and get the back ground part but the chords are giving me a hard time. 
            
Hard to play? Try these video lessons and learn fast. | Correct




comments powered by Disqus
↑ Back to top | Tablatures and chords are parodies/interpretations of the original songs. You may use it for private study, scholarship, research or language learning purposes only