>
 >
Silverwing

Silverwing Guitar Tabs

Arch Enemy - Silverwing chords, tabs, tablatures, lyrics

Guitar lessons | Add/correct | Request | Top 50 tabs Artists:  A B C D E F G H I J K L M N O P Q R S T U V W X Y Z 0-9

Silverwing Guitar Tabs – Arch Enemy

CD, Sheet music, Poster

Do you like Silverwing? Share with your friends now
TabsTabs v2
Arch Enemy - Silverwing
Listen to the record for timing and how much each riff is played.
This and other tabs can be found on my page.
E tuning

1.
|----------------------------------------------------------|
|----------------------------------------------------------|
|----------------------------------------------------------|
|----------------------------------------------------------|
|-2-1-2--4-2-4--5-4-5--7-5-7--10--9-7-9--7-5-7--5-4--2--1--|
|----------------------------------------------------------|
|                                                          |
|----------------------------------------------------------|
|----------------------------------------------------------|
|-----------------------------4----------------------------|
|---------------------------------7-5-7--5-4-5--4----------|
|-------------------------------------------------7--5--4--|
|----------------------------------------------------------|

2.
|--------------------------------------------------|
|--------------------------------------------------|
|--------------------------------------------------|
|--------------------------5-7-5-4-5-4-2-4-2-2--0--|
|-0---0-2---2-3---3-5---5--7-8-7-5-7-5-3-5-3-3--2--|
|---0-----0-----0-----0----------------------------|

3.
|---------------------------------------|
|---------------------------------------|
|-4-------4--3-------3--4---------------|
|---------------------------------------|
|-2-------2--1-------1--2---------------|
|----0000-------0000------000-0-000-000-|

|---------------------------------------|
|---------------------------------------|
|-4-------4--3-------3--4---------------|
|---------------------------------------|
|-2-------2--1-------1--2---------------|
|----0000-------0000------000-0-000-000-|

|---------------------------------------|
|---------------------------------------|
|---------------------------------------|
|-7--------7--6------6--7---------------|
|---------------------------------------|
|-5--0000--5--4-0000-4--5-000-0-000-000-|

|---------------------------------------|
|---------------------------------------|
|---------------------------------------|
|-7--------7--6------6--7---------------|
|---------------------------------------|
|-5--0000--5--4-0000-4--5-000-0-000-000-|

4.
|------------------------------------------------|
|------------------------------------------------|
|------------------------------------------------|
|-9--9-----9--9--9-----9--9--9---11-9-7-7--6--6--|
|-7--7--7777--6-66--6666--5-55--------4-4-44--4--|
|------------------------------0-----------------|

5. (not really sure about this one)
|------------------------------------------|
|------------------------------------------|
|------------------------------------------|
|-7---------7---------7---------9----------|
|-7---------4---------7---------5----------|
|-5---------5---------5---------7----------|
|                                          |
|------------------------------------------|
|------------------------------------------|
|------------------------------------9bp7--|
|-7~--4--6--7~--4--6--7~--6--7--9~---------|
|------------------------------------------|
|------------------------------------------|

6. (play 4 underneath)
|------------------------------------------9b---------|
|-----9-10-12------9-10-12------9-10-12-------12-10-9-|
|--9----------9--8---------8--7---------7-------------|
|-----------------------------------------------------|
|-----------------------------------------------------|
|-----------------------------------------------------|

7.
|-------------------------------------|
|-------------------------------------|
|-------------------------------------|
|-7---------7---------7---------9-----|
|-7---------4---------7---------5-----|
|-5---------5---------5---------7-----|
|                                     |
|-------------------------------------|
|-10~--7--9-10~--7--9-10---9-10-12~---|
|-------------------------------------|
|-------------------------------------|
|-------------------------------------|
|-------------------------------------|

Solo.
|--------------------------------------------|
|--------------------------------------------|
|-11b~--8-9-8h9p8----------------------------|
|-----------------11------9------------------|
|----------------------11---11---------------|
|-------------------------------7--9--7--9~--|

|--------------------------------------------|
|--------------------------------------------|
|-----------------------------------6b-------|
|--------------------------------------------|
|-9h11-9~------9h11-9-7-9-7------------------|
|---------9-12--------------9-7-9~-----------|

|-----------------------------------------|
|--------------16-17-16~--16-17-19-21b~---|
|-(6~)/18~--18----------------------------|
|-----------------------------------------|
|-----------------------------------------|
|-----------------------------------------|

(listen to the solo to get this part right)
|-17"-16"---------------------------------19b~-|
|---------19"-17"-16"--------------------------|
|---------------------18"-16"-13tr16-13~-------|
|----------------------------------------------|
|----------------------------------------------|
|----------------------------------------------|

Solo 2 (sorry i couldn't get the rhythms
under the solos, im bad at that)
|----------------------------------|
|----------------------------------|
|-9-----13--11-16-16-14-13-18-16~--|
|----------------------------------|
|-7--7--11--9--14-14-12-11-16-14---|
|----------------------------------|

|-----------------------------------16b-----------|
|-------161716--------161716--191716-----17p16----|
|-18~-18------18-21p18------18----------------18~-|
|-------------------------------------------------|
|-------------------------------------------------|
|-------------------------------------------------|

|-------------------------------------------|
|-------------------------------------------|
|-13-14-16----------------------------------|
|----------16-14-13~-14-13-14-13------------|
|--------------------------------16-14-16~--|
|-------------------------------------------|

|----------------------------------------16~---|
|-------------------------------14-16-17-------|
|-----------------14131113161413---------------|
|---------14131113-----------------------------|
|-14121112-------------------------------------|
|----------------------------------------------|

|-14--------------19b-17-16-14-----------------|
|----17-16-14------------------17~-16-14~------|
|-------------16~------------------------------|
|----------------------------------------------|
|----------------------------------------------|
|----------------------------------------------|

(harmonize in 3rds here)
|--------------------------------16--19b~~~~---|
|------------------------14--17----------------|
|-9~--11~--9-8-9-------------------------------|
|----------------11~---------------------------|
|----------------------------------------------|
|----------------------------------------------|

End is just the chords from 4 slowed down.





Comments


Popular Arch Enemy tabs & chords
Dead Bury Their Dead Bass Tabs
We Will Rise 2 Bass Tabs
Angelclaw 1 Tabs
Demonic Science 1 Tabs
Let The Killing Begin 2 Tabs
Losing Faith Tabs
Stigmata 1 Tabs
Taking Back My Soul Tabs
The Immortal 1 Tabs
The Last Enemy Tabs


Song lyrics



↑ Back to top | Tablatures and chords are parodies/interpretations of the original songs. You may use it for private study, scholarship, research or language learning purposes only
© 2014 AZChords.com Contact us | Privacy policy | DMCA | Add/correct tabs | Request tabs | Top 50 tabs