>
 >
My Apocalypse

My Apocalypse Guitar Tabs

Arch Enemy - My Apocalypse chords, tabs, tablatures, lyrics

Guitar lessons | Add/correct | Request | Top 50 tabs Artists:  A B C D E F G H I J K L M N O P Q R S T U V W X Y Z 0-9

My Apocalypse Guitar Tabs – Arch Enemy

CD, Sheet music, Poster

Do you like My Apocalypse? Share with your friends now
Bass TabsTabsTabs v2Tabs v3
MY APOCALYPSE
As recorded by Arch Enemy
(From the 2005 Album DOOMSDAY MACHINE)



	

Words by Angela Gossow
Music by M. Amott. C. Amott D. Erlandsson

   Intro
    
    Gtr I
    PM|                                    PM|
||---------------------------------------|----------------------------------|
||o--------------------------------------|----------------------------------|
||---------------------------------------|----------------------------------|
||---------------------------------------|------------------------------5---|
||o-7-7-7-(7)b8r(7)--7-(7)b8r(7)--5---7--|-7-7-7-(7)b8r(7)--7-(7)b8r(7)---7-|
||--0-0-0-(0)---(0)--0-(0)---(0)-(0)-(0)-|-0-0-0-(0)---(0)--0-(0)---(0)---0-|


  1.
  PM|                                    PM|   PM|   PM|   PM|
|--------------------------------------|--------------------------||
|--------------------------------------|-------------------------o||
|--------------------------------------|--------------------------||
|--------------------------------------|--------------------------||
|-7-7-7-(7)b8r(7)--7-(7)b8r(7)--5---7--|-----7-----7-----5-----5-o||
|-0-0-0-(0)---(0)--0-(0)---(0)-(0)-(0)-|-6-6-6-6-6-6-6-6-6-6-6-6--||


  2.
  PM|                                    PM|   PM|   PM|
|--------------------------------------|---------------------|
|--------------------------------------|---------------------|
|--------------------------------------|---------------------|
|--------------------------------------|---------------------|
|-7-7-7-(7)b8r(7)--7-(7)b8r(7)--5---7--|-----7-----7-----5---|
|-0-0-0-(0)---(0)--0-(0)---(0)-(0)-(0)-|-6-6-6-6-6-6-6-6-6---|


   Chorus
    $
    Gtr III
||---------------------------------------|----------------------------------|
||o--------------------------------------|----------------------------------|
||---------------9-----------------------|----------------------------------|
||---------------------------------------|----------------------------------|
||o--------------7-----------------------|----------------------------------|
||---------------------------------------|----------------------------------|
|
|   Gtrs I, II
|   PM|                                    PM|
||---------------------------------------|----------------------------------|
||o--------------------------------------|----------------------------------|
||---------------------------------------|----------------------------------|
||---------------------------------------|------------------------------5---|
||o-7-7-7-(7)b8r(7)--7-(7)b8r(7)--5---7--|-7-7-7-(7)b8r(7)--7-(7)b8r(7)---7-|
||--0-0-0-(0)---(0)--0-(0)---(0)-(0)-(0)-|-0-0-0-(0)---(0)--0-(0)---(0)---0-|


                                                        To Coda
  Gtrs I, II
  PM|                                    PM|   PM|   PM|   PM|
|--------------------------------------|--------------------------||
|--------------------------------------|-------------------------o||
|--------------------------------------|--------------------------||
|--------------------------------------|--------------------------||
|-7-7-7-(7)b8r(7)--7-(7)b8r(7)--5---7--|-----7-----7-----5-----5-o||
|-0-0-0-(0)---(0)--0-(0)---(0)-(0)-(0)-|-6-6-6-6-6-6-6-6-6-6-6-6--||


 Verse I
|-----------------------|---------------------------------|
|-----------------------|---------------------------------|
|-----------------------|---------------------------------|
|----4--------4-(4)-4---|--------------4--------4-(4)-4---|
|-4---------------------|---------------------------------|
|-2-----2-2-2---------1-|-(1)b2-(1)pb2----2-2-2---------2-|


|-------------------------|
|-------------------------|
|-------------------------|
|------4--------4-(4)-4---|
|-------------------------|
|-(2)-----2-2-2---------2-|


|-------------------------|-------------------------------|--------------------|
|-------------------------|-----------------------------4-|---4--4-4-4-4-4-4-4-|
|-------------------------|-----------------------------5-|---5--5-5-5-5-5-5-5-|
|------4--------4-(4)-4---|--------------4--------4-4-4-5-|---5--5-5-5-5-5-5-5-|
|-------------------------|-----------------------------3-|---3--3-3-3-3-3-3-3-|
|-(2)-----2-2-2---------1-|-(1)b2-(1)pb2----2-2-2---------|--------------------|


|--------------------|--------------------|-----------------------|
|---4--6-6-6-6-6-6-4-|---4--4-4-4-4-4-4-4-|---4--6-6-6-6-6-6-6----|
|---5--5-5-5-5-5-5-5-|---5--5-5-5-5-5-5-5-|---5--5-5-5-5-5-6-5----|
|---5--5-5-5-5-5-5-5-|---5--5-5-5-5-5-5-5-|---5--5-5-5-5-5-6-5----|
|---3--3-3-3-3-3-3-3-|---3--3-3-3-3-3-3-3-|---3--3-3-3-3-3-3-3----|
|--------------------|--------------------|--------------------1--|


|---------------------------------|
|---------------------------------|
|---------------------------------|
|--------------4--------4-(4)-4---|
|---------------------------------|
|-(1)b2-(1)pb2----2-2-2---------2-|


|-------------------------|-------------------------|
|-------------------------|-------------------------|
|-------------------------|-------------------------|
|------4--------4-(4)-4---|------4--------4-(4)-4---|
|-------------------------|-------------------------|
|-(2)-----2-2-2---------2-|-(2)-----2-2-2---------1-|


|-------------------------------|--------------------|--------------------|
|-----------------------------4-|---4--4-4-4-4-4-4-4-|---4--6-6-6-6-6-6-4-|
|-----------------------------5-|---5--5-5-5-5-5-5-5-|---5--5-5-5-5-5-5-5-|
|--------------4--------4-4-4-5-|---5--5-5-5-5-5-5-5-|---5--5-5-5-5-5-5-5-|
|-----------------------------3-|---3--3-3-3-3-3-3-3-|---3--3-3-3-3-3-3-3-|
|-(1)b2-(1)pb2----2-2-2---------|--------------------|--------------------|


                         D.S. al Coda
|--------------------|----------------|
|---4--4-4-4-4-4-4-4-|---4--6-6-6-6---|
|---5--5-5-5-5-5-5-5-|---5--5-5-5-5---|
|---5--5-5-5-5-5-5-5-|---5--5-5-5-5---|
|---3--3-3-3-3-3-3-3-|---3--3-3-3-3---|
|--------------------|----------------|


 Verse II
  &
|-------------------------------|-------------------------|
|-------------------------------|-------------------------|
|-------------------------------|-------------------------|
|------------4--------4-(4)-4---|------4--------4-(4)-4---|
|-------------------------------|-------------------------|
|-1b2-(1)pb2----2-2-2---------2-|-(2)-----2-2-2---------2-|


|-------------------------|-------------------------------|--------------------|
|-------------------------|-----------------------------4-|---4--4-4-4-4-4-4-4-|
|-------------------------|-----------------------------5-|---5--5-5-5-5-5-5-5-|
|------4--------4-(4)-4---|--------------4--------4-4-4-5-|---5--5-5-5-5-5-5-5-|
|-------------------------|-----------------------------3-|---3--3-3-3-3-3-3-3-|
|-(2)-----2-2-2---------1-|-(1)b2-(1)pb2----2-2-2---------|--------------------|


|--------------------|--------------------|-----------------------|
|---4--6-6-6-6-6-6-4-|---4--4-4-4-4-4-4-4-|---4--6-6-6-6-6-6-6----|
|---5--5-5-5-5-5-5-5-|---5--5-5-5-5-5-5-5-|---5--5-5-5-5-5-6-5----|
|---5--5-5-5-5-5-5-5-|---5--5-5-5-5-5-5-5-|---5--5-5-5-5-5-6-5----|
|---3--3-3-3-3-3-3-3-|---3--3-3-3-3-3-3-3-|---3--3-3-3-3-3-3-3----|
|--------------------|--------------------|--------------------1--|


|---------------------------------|
|---------------------------------|
|---------------------------------|
|--------------4--------4-(4)-4---|
|---------------------------------|
|-(1)b2-(1)pb2----2-2-2---------2-|


|-------------------------|-------------------------|
|-------------------------|-------------------------|
|-------------------------|-------------------------|
|------4--------4-(4)-4---|------4--------4-(4)-4---|
|-------------------------|-------------------------|
|-(2)-----2-2-2---------2-|-(2)-----2-2-2---------1-|


|-------------------------------|--------------------|--------------------|
|-----------------------------4-|---4--4-4-4-4-4-4-4-|---4--6-6-6-6-6-6-4-|
|-----------------------------5-|---5--5-5-5-5-5-5-5-|---5--5-5-5-5-5-5-5-|
|--------------4--------4-4-4-5-|---5--5-5-5-5-5-5-5-|---5--5-5-5-5-5-5-5-|
|-----------------------------3-|---3--3-3-3-3-3-3-3-|---3--3-3-3-3-3-3-3-|
|-(1)b2-(1)pb2----2-2-2---------|--------------------|--------------------|


|--------------------|----------------|
|---4--4-4-4-4-4-4-4-|---4--6-6-6-6---|
|---5--5-5-5-5-5-5-5-|---5--5-5-5-5---|
|---5--5-5-5-5-5-5-5-|---5--5-5-5-5---|
|---3--3-3-3-3-3-3-3-|---3--3-3-3-3---|
|--------------------|----------------|


   Chorus
    Gtr III
||---------------------------------------|----------------------------------|
||o--------------------------------------|----------------------------------|
||---------------9-----------------------|----------------------------------|
||---------------------------------------|----------------------------------|
||o--------------7-----------------------|----------------------------------|
||---------------------------------------|----------------------------------|
|
|   Gtrs I, II
|   PM|                                    PM|
||---------------------------------------|----------------------------------|
||o--------------------------------------|----------------------------------|
||---------------------------------------|----------------------------------|
||---------------------------------------|------------------------------5---|
||o-7-7-7-(7)b8r(7)--7-(7)b8r(7)--5---7--|-7-7-7-(7)b8r(7)--7-(7)b8r(7)---7-|
||--0-0-0-(0)---(0)--0-(0)---(0)-(0)-(0)-|-0-0-0-(0)---(0)--0-(0)---(0)---0-|


  Gtrs I, II
  PM|                                    PM|   PM|   PM|   PM|
                                                                  4x
|--------------------------------------|--------------------------||
|--------------------------------------|-------------------------o||
|--------------------------------------|--------------------------||
|--------------------------------------|--------------------------||
|-7-7-7-(7)b8r(7)--7-(7)b8r(7)--5---7--|-----7-----7-----5-----5-o||
|-0-0-0-(0)---(0)--0-(0)---(0)-(0)-(0)-|-6-6-6-6-6-6-6-6-6-6-6-6--||


 Interlude
  Gtr IV
|---------x-x-|-7-7-(7)-x-x-7-7-(7)-x-x-|--------7-7-|-(7)----|
|---------x-x-|-7-7-(7)-x-x-7-7-(7)-x-x-|--------8-7-|-(7)----|
|---------x-x-|-7-7-(7)-x-x-7-7-(7)-x-x-|--------9-7-|-(7)----|
|-------------|-------------------------|------------|--------|
|-------------|-------------------------|------------|--------|
|-------------|-------------------------|-0----------|--------|
|
| Gtrs I, II
|-------------|-------------------------|------------|--------|
|-------------|-------------------------|------------|--------|
|-------------|-------------------------|------------|--------|
|-9-----------|-------------------------|------------|--------|
|-7-----------|-------------------------|------------|--------|
|-0-----------|-------------------------|------------|--------|


|---------x-x-|-7-7-(7)-x-x-7-7-(7)-x-x-|--------7-7-|-(7)----^----|
|---------x-x-|-7-7-(7)-x-x-7-7-(7)-x-x-|--------8-7-|-(7)----^----|
|---------x-x-|-7-7-(7)-x-x-7-7-(7)-x-x-|--------9-7-|-(7)----^----|
|-------------|-------------------------|------------|----------------|
|-------------|-------------------------|------------|----------------|
|-0-----------|-------------------------|-0----------|----------------|


    Gtr V
                                   4x
||----------------|----------------||--------------------------|
||o-----8------7--|-----5------7--o||-----------------------|
||----------------|----------------||-----------------------|
||----9------7----|---5------7-----||---------------------------|
||o-7------5------|-3------5------o||------------------------------|
||----------------|----------------||------------------------------|


|-------------------------------||--------------------------------|
|----------------------------||o----------------------------|
|----------------------------||-----------------------------|
|-()--------------------------||--()--------------------------|
|-----------------------------------||o-----------------------------------|
|-----------------------------------||------------------------------------|


                                     3x
|--------------------------------||
|----------------------------o||
|-----------------------------||
|-()---------------------------||
|-----------------------------------o||
|------------------------------------||


  Gtr I
|-/19-17-15-17-(17)-15-14-15-|-(15)-14----14-(14)-------------|
|----------------------------|---------17---------17-15-------|
|----------------------------|--------------------------14b16-|
|----------------------------|--------------------------------|
|----------------------------|--------------------------------|
|----------------------------|--------------------------------|
|
| Gtr II
|----------------------------|--------------------------------|
|----------------------------|--------------------------------|
|----------------------------|--------------------------------|
|----------------------------|--------------------------------|
|----------------------------|--------------------------------|
|----------------------------|--------------------------------|
|
| Gtr V
|----------------------------|--------------------------------|
|---------8-------------7----|----------5-------------7-------|
|----------------------------|--------------------------------|
|------9-------------7-------|-------5-------------7----------|
|---7------------5-----------|---3-------------5--------------|
|----------------------------|--------------------------------|


|-----------------------|-----------------------|
|-----------------------|-----------------------|
|-(14)------------------|-(14)pb16--------------|
|-----------------------|-----------------------|
|-----------------------|-----------------------|
|-----------------------|-----------------------|
|
|-----------------------|-----------------------|
|-----------------15b17-|-(15)pb17------15------|
|-----------------------|-----------------------|
|-----------------------|-----------------------|
|-----------------------|-----------------------|
|-----------------------|-----------------------|
|
|-----------------------|-----------------------|
|--------8------7-------|------------5-------7--|
|-----------------------|-----------------------|
|------9------7---------|----------5-------7----|
|---7-------5-----------|---3------------5------|
|-----------------------|-----------------------|


|-/19-17-15-17-(17)-15-14-15-|-(15)-14----14-(14)----/22--|
|----------------------------|---------17---------17------|
|----------------------------|----------------------------|
|----------------------------|----------------------------|
|----------------------------|----------------------------|
|----------------------------|----------------------------|
|
|----------------------------|----------------------------|
|----------------------------|----------------------------|
|----------------------------|----------------------------|
|----------------------------|----------------------------|
|----------------------------|----------------------------|
|----------------------------|----------------------------|
|
|----------------------------|----------------------------|
|---------8-------------7----|----------5--------------7--|
|----------------------------|----------------------------|
|------9-------------7-------|-------5-------------7------|
|---7------------5-----------|---3-------------5----------|
|----------------------------|----------------------------|


|-19-------------|-22b24---22-20-19-(19)b20-(19)--|
|----------------|--------------------------------|
|----------------|--------------------------------|
|----------------|--------------------------------|
|----------------|--------------------------------|
|----------------|--------------------------------|
|
|----------------|--------------------------------|
|----------------|--------------------------------|
|----------------|--------------------------------|
|----------------|--------------------------------|
|----------------|--------------------------------|
|----------------|--------------------------------|
|
|----------------|--------------------------------|
|------8------7--|----------5-----------------7---|
|----------------|--------------------------------|
|----9------7----|-------5------------7-----------|
|--7------5------|--3-------------5---------------|
|----------------|--------------------------------|


|-/19-17-19-17-15-17-(17)-15-14-15-|-(15)-14-15-14----14-(14)--------|
|----------------------------------|---------------17---------17-15--|
|----------------------------------|---------------------------------|
|----------------------------------|---------------------------------|
|----------------------------------|---------------------------------|
|----------------------------------|---------------------------------|
|
|-/15-14-15-14----14-(14)----------|---------------------------------|
|--------------17---------17-15-17-|-(17)-15-17-15----15-(15)--------|
|----------------------------------|---------------16---------16-14--|
|----------------------------------|---------------------------------|
|----------------------------------|---------------------------------|
|----------------------------------|---------------------------------|
|
|----------------------------------|---------------------------------|
|---------------8-------------7----|----------------5-------------7--|
|----------------------------------|---------------------------------|
|------9-------------------7-------|-------5-------------------7-----|
|---7------------------5-----------|---3-------------------5---------|
|----------------------------------|---------------------------------|


|----------------|------------------|
|----------------|------------------|
|-16-------------|-(16)-------------|
|----------------|------------------|
|----------------|------------------|
|----------------|------------------|
|
|----------------|------------------|
|----------------|------------------|
|-12-------------|-(12)-------------|
|----------------|------------------|
|----------------|------------------|
|----------------|------------------|
|
|----------------|------------------|
|------8------7--|--------5------7--|
|----------------|------------------|
|----9------7----|------5------7----|
|--7------5------|---3-------5------|
|----------------|------------------|


|-/19-17-15-17-(17)-15-17-15-14-15-|-(15)-14----14-(14)--------|
|----------------------------------|---------17---------17-15--|
|----------------------------------|---------------------------|
|----------------------------------|---------------------------|
|----------------------------------|---------------------------|
|----------------------------------|---------------------------|
|
|-/15-14----14-(14)----------------|---------------------------|
|--------17---------15-17-17-15-17-|-(17)-15----15-(15)--------|
|----------------------------------|---------16---------16-14--|
|----------------------------------|---------------------------|
|----------------------------------|---------------------------|
|----------------------------------|---------------------------|
|
|----------------------------------|---------------------------|
|---------8-------------------7----|----------5-------------7--|
|----------------------------------|---------------------------|
|------9-------------7-------------|-------5-------------7-----|
|---7------------5-----------------|---3-------------5---------|
|----------------------------------|---------------------------|


|-22b24-------------|-(22)pb24-------------|
|-------------------|----------------------|
|-------------------|----------------------|
|-------------------|----------------------|
|-------------------|----------------------|
|-------------------|----------------------|
|
|-17b19-------------|-(17)pb19-------------|
|-------------------|----------------------|
|-------------------|----------------------|
|-------------------|----------------------|
|-------------------|----------------------|
|-------------------|----------------------|
|
|-------------------|----------------------|
|---------8------7--|------------5------7--|
|-------------------|----------------------|
|-------9------7----|----------5------7----|
|--7---------5------|---3-----------5------|
|-------------------|----------------------|


 Bridge
  Gtr VI
|--------------|--------------|----------------|------------------|
|--------------|--------------|----------------|------------------|
|--------------|--------------|----------------|------------------|
|------5-4-----|--------------|--------5-4---5-|-(5)-4------------|
|----------5-3-|-(3)------5-7-|-(7)--------7---|-------7----------|
|--------------|--------------|----------------|------------------|
|
| Gtr II
|                                                         PM--|
|--------------|--------------|----------------|------------------|
|--------------|--------------|----------------|------------------|
|--------------|--------------|----------------|------------------|
|--------------|----------4-5-|-(5)--------7-9-|-(9)--------------|
|-2--------5-7-|-(7)------2-3-|-(3)--------5-7-|-(7)------5-4-3-2-|
|-0--------3-5-|-(5)----------|----------------|----------3-2-1-0-|


|----------------|--------------|----------------|---------------------|
|----------------|--------------|----------------|---------------------|
|----------------|--------------|----------------|---------------------|
|--------5-4-----|--------------|--------5-4---7-|-(7)-5-4-------------|
|------------5-3-|-(3)------5-7-|-(7)--------7---|---------7-----------|
|----------------|--------------|----------------|---------------------|
|
|                                                             PM----|
|----------------|--------------|----------------|---------------------|
|----------------|--------------|----------------|---------------------|
|----------------|--------------|----------------|---------------------|
|----------------|----------4-5-|-(5)--------7-9-|-(9)-----------------|
|-(2)--------5-7-|-(7)------2-3-|-(3)--------5-7-|-(7)--------6-5-4-3--|
|-(0)--------3-5-|-(5)----------|----------------|------------4-3-2-1--|


  Gtr VI
|------------------|-----------------|
|------12-10--7----|------------7--8-|
|----------------9-|--(9)------------|
|------------------|-----------------|
|------------------|-----------------|
|------------------|-----------------|
|
| Gtr II
|------------------|-----------------|
|------------------|-----------------|
|------12-11-------|-----------------|
|------------12-10-|-(10)------12-14-|
|------------------|-----------------|
|------------------|-----------------|
|
| Gtr I
|------------------|-----------------|
|------------------|-----------------|
|------------------|-----------------|
|------------------|------------4--5-|
|-2-----------5--7-|--(7)-------2--3-|
|-0-----------3--5-|--(5)------------|


|---------------------|---------------------|
|--(8)----12-10--8-12-|-(12)-10--8----------|
|---------------------|---------------------|
|---------------------|---------------------|
|---------------------|---------------------|
|---------------------|---------------------|
|
|---------------------|---------------------|
|---------------------|---------------------|
|---------12-11----12-|-(12)-11-------------|
|-(14)----------14----|---------14----------|
|---------------------|---------------------|
|---------------------|---------------------|
|
|                                   PM--|
|---------------------|---------------------|
|---------------------|---------------------|
|---------------------|---------------------|
|--(5)-----------7--9-|--(9)----------------|
|--(3)-----------5--7-|--(7)--------5-4-3-2-|
|---------------------|-------------3-2-1-0-|


|--------19-17-------|--------------15-|
|--------------19-17-|-(17)------19----|
|--------------------|-----------------|
|--------------------|-----------------|
|--------------------|-----------------|
|--------------------|-----------------|
|
|--------15-14-------|-----------------|
|--------------15-13-|-(13)------15-17-|
|--------------------|-----------------|
|--------------------|-----------------|
|--------------------|-----------------|
|--------------------|-----------------|
|
|--------------------|-----------------|
|--------------------|-----------------|
|--------------------|-----------------|
|--------------------|------------4--5-|
|-(2)-----------5--7-|--(7)-------2--3-|
|-(0)-----------3--5-|--(5)------------|


|-(15)----19-17---15---|-19b20---19-17-15-------|
|----------------------|------------------------|
|----------------------|------------------------|
|----------------------|------------------------|
|----------------------|------------------------|
|----------------------|------------------------|
|
|---------15-14--------|-15b17---15-14----------|
|-(17)------------17---|---------------17-------|
|----------------------|------------------------|
|----------------------|------------------------|
|----------------------|------------------------|
|----------------------|------------------------|
|
|                                       PM----|
|----------------------|------------------------|
|----------------------|------------------------|
|----------------------|------------------------|
|--(5)----------7----9-|-(9)--------------------|
|--(3)----------5----7-|-(7)------------6-5-4-3-|
|----------------------|----------------4-3-2-1-|


|-(15)--------|-(15)--(15)\----------|
|-------------|----------------------|
|-------------|----------------------|
|-------------|----------------------|
|-------------|----------------------|
|-------------|----------------------|
|
|-------------|----------------------|
|-(17)--------|-(17)--(17)\----------|
|-------------|----------------------|
|-------------|----------------------|
|-------------|----------------------|
|-------------|----------------------|
|
|-------------|----------------------|
|-------------|----------------------|
|-------------|----------------------|
|---2---------|--(2)-----------------|
|---2---------|--(2)-----------------|
|---0---------|--(0)-----------/13\--|


   Intro revisited
    Gtr III
||---------------------------------------|----------------------------------|
||o--------------------------------------|----------------------------------|
||---------------9-----------------------|----------------------------------|
||---------------------------------------|----------------------------------|
||o--------------7-----------------------|----------------------------------|
||---------------------------------------|----------------------------------|
|
|   Gtr I
|   PM|                                    PM|
||---------------------------------------|----------------------------------|
||o--------------------------------------|----------------------------------|
||---------------------------------------|----------------------------------|
||---------------------------------------|------------------------------5---|
||o-7-7-7-(7)b8r(7)--7-(7)b8r(7)--5---7--|-7-7-7-(7)b8r(7)--7-(7)b8r(7)---7-|
||--0-0-0-(0)---(0)--0-(0)---(0)-(0)-(0)-|-0-0-0-(0)---(0)--0-(0)---(0)---0-|


  1.
  Gtr I
  PM|                                    PM|   PM|   PM|   PM|
|--------------------------------------|--------------------------||
|--------------------------------------|-------------------------o||
|--------------------------------------|--------------------------||
|--------------------------------------|--------------------------||
|-7-7-7-(7)b8r(7)--7-(7)b8r(7)--5---7--|-----7-----7-----5-----5-o||
|-0-0-0-(0)---(0)--0-(0)---(0)-(0)-(0)-|-6-6-6-6-6-6-6-6-6-6-6-6--||


  2.
  PM|                                    PM|   PM|   PM|
|--------------------------------------|---------------------|
|--------------------------------------|---------------------|
|--------------------------------------|---------------------|
|--------------------------------------|---------------------|
|-7-7-7-(7)b8r(7)--7-(7)b8r(7)--5---7--|-----7-----7-----5---|
|-0-0-0-(0)---(0)--0-(0)---(0)-(0)-(0)-|-6-6-6-6-6-6-6-6-6---|


   Chorus
    Gtr III
||---------------------------------------|----------------------------------|
||o--------------------------------------|----------------------------------|
||---------------9-----------------------|----------------------------------|
||---------------------------------------|----------------------------------|
||o--------------7-----------------------|----------------------------------|
||---------------------------------------|----------------------------------|
|
|   Gtrs I, II
|   PM|                                    PM|
||---------------------------------------|----------------------------------|
||o--------------------------------------|----------------------------------|
||---------------------------------------|----------------------------------|
||---------------------------------------|------------------------------5---|
||o-7-7-7-(7)b8r(7)--7-(7)b8r(7)--5---7--|-7-7-7-(7)b8r(7)--7-(7)b8r(7)---7-|
||--0-0-0-(0)---(0)--0-(0)---(0)-(0)-(0)-|-0-0-0-(0)---(0)--0-(0)---(0)---0-|


  Gtrs I, II
  PM|                                    PM|   PM|   PM|   PM|
                                                                  4x
|--------------------------------------|--------------------------||
|--------------------------------------|-------------------------o||
|--------------------------------------|--------------------------||
|--------------------------------------|--------------------------||
|-7-7-7-(7)b8r(7)--7-(7)b8r(7)--5---7--|-----7-----7-----5-----5-o||
|-0-0-0-(0)---(0)--0-(0)---(0)-(0)-(0)-|-6-6-6-6-6-6-6-6-6-6-6-6--||


  PM|   PM|   PM|   PM|     PM|   PM|   PM|   PM|
|-------------------------|-------------------------|
|-------------------------|-------------------------|
|-------------------------|-------------------------|
|-------------------------|-------------------------|
|-----7-----7-----5-----5-|-----7-----7-----5-----5-|
|-6-6-6-6-6-6-6-6-6-6-6-6-|-6-6-6-6-6-6-6-6-6-6-6-6-|


                        Gtr III
                        >
  PM|   PM|   PM|
|---------------------|------*|
|---------------------|------*|
|---------------------|-9----*|
|---------------------|------*|
|-----7-----7-----5---|-7----*|
|-6-6-6-6-6-6-6-6-6---|------*|


Tablature Legend
----------------
 h   - hammer-on
 p   - pull-off
 b   - bend
 pb  - pre-bend
 r   - bend release (if no number after the r, then release immediately)
 /\  - slide into or out of (from/to "nowhere")
 s   - legato slide
 S   - shift slide
 - natural harmonic
[n]  - artificial harmonic
n(n) - tapped harmonic
 ~   - vibrato
 tr  - trill
 T   - tap
 TP  - trem. picking
 PM  - palm muting
\n/  - tremolo bar dip; n = amount to dip


Misc Legend
-----------
 |  - bar
||  - double bar
||o - repeat start
o|| - repeat end
*|  - double bar (ending)
 :  - bar (freetime)
 $  - Segno
 &  - Coda





Comments


Popular Arch Enemy tabs & chords
Angelclaw 2 Tabs
Bury Me An Angel Tabs
Damnations Way Tabs
Damnations Way 2 Tabs
Dead Inside Tabs
Diva Satanica 2 Tabs
Enemy Within 2 Tabs
Revolution Begins Tabs
Silverwing Tabs
Starbreaker Intro Tabs


Song lyrics



↑ Back to top | Tablatures and chords are parodies/interpretations of the original songs. You may use it for private study, scholarship, research or language learning purposes only
© 2014 AZChords.com Contact us | Privacy policy | DMCA | Add/correct tabs | Request tabs | Top 50 tabs