>
 >
I Am Legend Out For Blood

I Am Legend Out For Blood Guitar Tabs

Arch Enemy - I Am Legend Out For Blood chords, tabs, tablatures, lyrics

Guitar lessons | Add/correct | Request | Top 50 tabs Artists:  A B C D E F G H I J K L M N O P Q R S T U V W X Y Z 0-9

I Am Legend Out For Blood Guitar Tabs – Arch Enemy

CD, Sheet music, Poster

Do you like I Am Legend Out For Blood? Share with your friends now
TabsTabs v2Tabs v3
I AM LEGEND/OUT FOR BLOOD
As recorded by Arch Enemy
(From the 2005 Album DOOMSDAY MACHINE)



	

Words and Music by Arch Enemy

   I am a Legend
    Q.=110
    N.C.
   12/8
    Gtrs I, II
    PM--------------------------------------------|
                                                                      6x
||-------------------------------|------------------------------------||
||o------------------------------|-----------------------------------o||
||-------------------------------|--------------7---------------------||
||----------5-7-8---------10-8-7-|---------8-10---10-8h10p8p7-8-7-----||
||o-0-0-0-0-------0-0-0-0--------|-0-0-0-0------------------------10-o||
||-------------------------------|------------------------------------||


    A5                        G5A5Bb5  Ab5             G5
    Gtr I
      PM--|   PM|       PM|              PM--|   PM|     PM--|   PM|
||-----------------------------------|---------------------------------|
||o----------------------------------|---------------------------------|
||-----------------------------------|---------------------------------|
||--7-------7--------7--------5-7--8-|-6-------6-------5-------5-------|
||o---0-0-0---0-0-0-----0-0-0--------|---0-0-0---0-0-0---0-0-0---0-0-0-|
||-----------------------------------|---------------------------------|
|
|   Gtr II
|                             PM--|
||-----------------------------------|---------------------------------|
||o----------------------------------|---------------------------------|
||--9---------------(9)-------7-9-10-|-8---------------7---------------|
||--7---------------(7)-------5-7--8-|-6---------------5---------------|
||o-0---------------(0)--------------|---------------------------------|
||-----------------------------------|---------------------------------|


  1.
  N.C.
  Gtrs I, II
    PM--|   PM|     PM|             PM--|   PM|     PM--|   PM|
|-------------------------------|----------------------------------||
|-------------------------------|---------------------------------o||
|-------------------------------|----------------------------------||
|-7-------7-------7-------5-7-8-|-6-------6-------5-------5--------||
|---0-0-0---0-0-0---0-0-0-------|---0-0-0---0-0-0---0-0-0---0-0-0-o||
|-------------------------------|----------------------------------||


  2.
    PM--|   PM|     PM|             PM--|   PM|     PM--|
|-------------------------------|--------------------------------|
|-------------------------------|--------------------------------|
|-------------------------------|--------------------------------|
|-7-------7-------7-------5-7-8-|-6-------6-------5--------------|
|---0-0-0---0-0-0---0-0-0-------|---0-0-0---0-0-0---0-0-0-/7\----|
|-------------------------------|-------------------------/7\----|


    Gtr V
||--17-------------18--------------|-17-----------------------------------||
||o--------------------------------|-----------------17------------------o||
||---------------------------------|--------------------------------------||
||---------------------------------|--------------------------------------||
||o--------------------------------|-------------------------------------o||
||---------------------------------|--------------------------------------||
|
|   Gtrs I, II
|    PM----------------------------------------------|
||---------------------------------|--------------------------------------||
||o--------------------------------|-------------------------------------o||
||---------------------------------|---------------7----------------------||
||-----------5-7-8----------10-8-7-|----------8-10---10-8h10p8p7-8-7------||
||o--0-0-0-0--------0-0-0-0--------|--0-0-0-0------------------------10--o||
||---------------------------------|--------------------------------------||


||--17-------------18--------------|-17-----------------------------------||
||o--------------------------------|-----------------17------------------o||
||---------------------------------|--------------------------------------||
||---------------------------------|--------------------------------------||
||o--------------------------------|-------------------------------------o||
||---------------------------------|--------------------------------------||
|
||---------------------------------|--------------------------------------||
||o--------------------------------|-------------------------------------o||
||---------------------------------|---------------7----------------------||
||-----------5-7-8----------10-8-7-|----------8-10---10-8h10p8p7-8-7------||
||o--0-0-0-0--------0-0-0-0--------|--0-0-0-0------------------------10--o||
||---------------------------------|--------------------------------------||


    A5                        G5A5Bb5  Ab5             G5
    Gtr I
      PM--|   PM|       PM|              PM--|   PM|     PM--|   PM|
||-----------------------------------|---------------------------------|
||o----------------------------------|---------------------------------|
||-----------------------------------|---------------------------------|
||--7-------7--------7--------5-7--8-|-6-------6-------5-------5-------|
||o---0-0-0---0-0-0-----0-0-0--------|---0-0-0---0-0-0---0-0-0---0-0-0-|
||-----------------------------------|---------------------------------|
|
|   Gtr II
|                             PM--|
||-----------------------------------|---------------------------------|
||o----------------------------------|---------------------------------|
||--9---------------(9)-------7-9-10-|-8---------------7---------------|
||--7---------------(7)-------5-7--8-|-6---------------5---------------|
||o-0---------------(0)--------------|---------------------------------|
||-----------------------------------|---------------------------------|


  N.C.
  Gtrs I, II
    PM--|   PM|     PM|             PM--|   PM|     PM--|   PM|
|-------------------------------|----------------------------------||
|-------------------------------|---------------------------------o||
|-------------------------------|----------------------------------||
|-7-------7-------7-------5-7-8-|-6-------6-------5-------5--------||
|---0-0-0---0-0-0---0-0-0-------|---0-0-0---0-0-0---0-0-0---0-0-0-o||
|-------------------------------|----------------------------------||


  A5           G5A5Bb5  Ab5 G5
                       6/8
|---------------------|---------|
|---------------------|---------|
|-9------(9)---7-9-10-|-8---7---|
|-7------(7)---5-7--8-|-6---5---|
|-0------(0)----------|---------|
|---------------------|---------|


   Out for Blood - Verse
    Q=210
    $
    N.C.
   5/4
    Gtrs I, II
    PM--|   PM  PM  PM    PM--|   PM  PM  PM
                                               3x
||----------------------|----------------------||
||o---------------------|---------------------o||
||----------------------|----------------------||
||--------4---5---3---2-|-----------1---3---4--||
||o---------------------|-------5-------------o||
||--2-2-2---2---2---2---|-0-0-0---0---0---0----||


  F#5         D5/A        E/B         F#/C#
 3/4
        PM|         PM|         PM|           PM|
|-----------|-----------|-----------|-------------|
|-----------|-----------|-----------|-------------|
|-----------|-----------|-----------|-------------|
|-4--4------|-7--7------|-9--9------|-11--11------|
|-4--4------|-5--5--5-5-|-7--7------|--9---9------|
|-2--2--2-2-|-5--5------|-7--7--0-0-|--9---9--2-2-|


    N.C.
   5/4
    PM--|   PM  PM  PM    PM--|   PM  PM  PM
                                               3x
||----------------------|----------------------||
||o---------------------|---------------------o||
||----------------------|----------------------||
||--------4---5---3---2-|-----------1---3---4--||
||o---------------------|-------5-------------o||
||--2-2-2---2---2---2---|-0-0-0---0---0---0----||


  F#5       F          F/C        F
 3/4                               4/4
|---------|-14--14----|-20--20----|-14--14-------|
|---------|-13--13----|-19--19----|-13--13-------|
|---------|-11--11----|-17--17----|-11--11-------|
|-4--4----|-----------|-----------|------------7-|
|-4--4----|-----------|-----------|--------------|
|-2--2----|-----------|-----------|--------------|


 Chorus
  N.C.                                                                      (A)
 4/4
  Gtr I
      PM  PM  PM          PM  PM  PM          PM  PM  PM  PM    PM  PM  PM
|-------------------|-------------------|-------------------|------------------|
|-------------------|-------------------|-------------------|------------------|
|-------------------|-------------------|-------------------|------------------|
|-(7)---7---8---5-7-|-(7)---7---8---5-7-|-(7)---7---8---5---|-7---3---5---2-11-|
|-----0---0---0-----|-----0---0---0-----|-----0---0---0---0-|---0---0---0------|
|-------------------|-------------------|-------------------|------------------|
|
| Gtr II
|     PM  PM  PM          PM  PM  PM          PM  PM  PM  PM    PM  PM  PM
|-------------------|-------------------|-------------------|------------------|
|-------------------|-------------------|-------------------|------------------|
|-------------------|-------------------|-------------------|------------------|
|-(7)---7---8---5-7-|-(7)---7---8---5-7-|-(7)---7---8---5---|-7---3---5---2--7-|
|-----0---0---0-----|-----0---0---0-----|-----0---0---0---0-|---0---0---0------|
|-------------------|-------------------|-------------------|------------------|


              (Bb) (G(A)         (A)  (Bb) (G(A)
       PM   PM   PM            PM   PM   PM
|-----------------------|-----------------------|
|-----------------------|-----------------------|
|-----------------------|-----------------------|
|-(11)---11---12---8-11-|-(11)---11---12---8-11-|
|------0----0----0------|------0----0----0------|
|-----------------------|-----------------------|
|
|      PM   PM   PM            PM   PM   PM
|-----------------------|-----------------------|
|-----------------------|-----------------------|
|-----------------------|-----------------------|
|--(7)----7----8---5--7-|--(7)----7----8---5--7-|
|------0----0----0------|------0----0----0------|
|-----------------------|-----------------------|


              (Bb) (Gm)  (A)  (F) (Gm)(EA5
       PM   PM   PM  PM     PM  PM  PM
|----------------------|------------------|
|----------------------|------------------|
|----------------------|------------------|
|-(11)---11---12---8---|-11---7---8---5-7-|
|------0----0----0---0-|----0---0---0-----|
|----------------------|------------------|
|
|      PM   PM   PM  PM     PM  PM  PM
|----------------------|------------------|
|----------------------|------------------|
|----------------------|----------------2-|
|--(7)----7----8---5---|--7---3---5---2-2-|
|------0----0----0---0-|----0---0---0---0-|
|----------------------|------------------|


                  Bb5                 Eb5
|-------------------|-------------------|
|-------------------|-------------------|
|-------------------|-------------------|
|-(7)---7---8---5-7-|-(7)---7---8---5-7-|
|-----0---0---0-----|-----0---0---0-----|
|-------------------|-------------------|
|
|-------------------|-------------------|
|-------------------|-------------------|
|-(2)-------------3-|-(3)-------------8-|
|-(2)-------------3-|-(3)-------------8-|
|-(0)-------------1-|-(1)-------------6-|
|-------------------|-------------------|


                      F5       G5
|-------------------|-------------------|
|-------------------|-------------------|
|-------------------|-------------------|
|-(7)---7---8---5---|--7---3----5---2-7-|
|-----0---0---0---0-|----0---0----0-----|
|-------------------|-------------------|
|
|-------------------|-------------------|
|-------------------|-------------------|
|-(8)---------------|-10-------12-----2-|
|-(8)---------------|-10-------12-----2-|
|-(6)---------------|--8-------10-----0-|
|-------------------|-------------------|


                  Bb                  Eb
|-------------------|-------------------|
|-------------------|-------------------|
|-------------------|-------------------|
|-(7)---7---8---5-7-|-(7)---7---8---5-7-|
|-----0---0---0-----|-----0---0---0-----|
|-------------------|-------------------|
|
|-------------------|-------------------|
|-------------------|-------------------|
|-(2)-------------3-|-(3)-------------8-|
|-(2)-------------3-|-(3)-------------8-|
|-(0)-------------1-|-(1)-------------6-|
|-------------------|-------------------|


             To Coda      D.S. al Coda
                      F5       G5
|-------------------|-------------------|
|-------------------|-------------------|
|-------------------|-------------------|
|-(7)---7---8---5---|--7---3----5-------|
|-----0---0---0---0-|----0---0----0-0-0-|
|-------------------|-------------------|
|
|-------------------|-------------------|
|-------------------|-------------------|
|-(8)---------------|-10-------12-------|
|-(8)---------------|-10-------12-------|
|-(6)---------------|--8-------10-------|
|-------------------|-------------------|


                      Bridge
  &
  F5       G5
|-------------------||-----|
|-------------------||-----|
|-------------------||-----|
|--7---3----5---2---||-----|
|----0---0----0---0-||-----|
|-------------------||-----|
|
|-------------------||-----|
|-------------------||-----|
|-10-------12-------||-----|
|-10-------12-------||-----|
|--8-------10-------||-----|
|-------------------||-----|


    E5 F5     E5 F5 G#5G5     E5 F5     E5 F5 B5 Bb5
  Gtrs I, II
    PM-------------------------------------------|
|-----------|-------------|-----------|-------------|
|-----------|-------------|-----------|-------------|
|-----------|-------------|-----------|-------4--3--|
|---2--3----|-2--3--6--5--|---2--3----|-2--3--4--3--|
|---2--3----|-2--3--6--5--|---2--3----|-2--3--2--1--|
|---0--1----|-0--1--4--3--|---0--1----|-0--1--------|


    E5 F5     E5 F5 G#5G5        E5 F5     E5 F5 B5 Bb5
|-----------|-------------|--------------|-------------|
|-----------|-------------|--------------|-------------|
|-----------|-------------|--------------|-------4--3--|
|---2--3----|-2--3--6--5--|-(5)--2--3----|-2--3--4--3--|
|---2--3----|-2--3--6--5--|-(5)--2--3----|-2--3--2--1--|
|---0--1----|-0--1--4--3--|-(3)--0--1----|-0--1--------|


    E5 N.C.
    PM
||-----------------------------|---------------------------------|
||o----------------------------|---------------------------------|
||-----------------------------|---------------------------------|
||-----------------------------|-----------------7-7-7-7-6-6-6-6-|
||o-2--7-7-7-7-8-8-8-8---------|-7-7-7-7-8-8-8-8-----------------|
||--0------------------0-0-0-0-|---------------------------------|


  E5 N.C.
  PM
                                                                     3x
|----------------------------|---------------------------------------||
|----------------------------|--------------------------------------o||
|----------------------------|---------------------------------------||
|----------------------------|-----------------10-10-10-10-9-9-9-9---||
|-2--7-7-7-7-8-8-8-8---------|-7-7-7-7-8-8-8-8----------------------o||
|-0------------------0-0-0-0-|---------------------------------------||


  E5 N.C.
  PM
|----------------------------|----------------------------------|
|----------------------------|----------------------------------|
|----------------------------|----------------------------------|
|----------------------------|-----------------7-7-7-7-6-6-6-6--|
|-2--7-7-7-7-8-8-8-8---------|-7-7-7-7-8-8-8-8------------------|
|-0------------------0-0-0-0-|----------------------------------|


        H.=H                  Q=165
  A5 G#5A5 B5   C5  B5 C5  D5
|-------------|----------------|
|-------------|----------------|
|-------------|----------------|
|-7--6--7--9--|-10--9--10--12--|
|-7--6--7--9--|-10--9--10--12--|
|-5--4--5--7--|--8--7---8--10--|


 Solo
  Q.=165
  E5
 12/8
  Gtr III
|-------5h7h8-------5h7h8-|---------5h7h8-------5h7h8-|
|-5h7h8-------5h7h8-------|--5h=7h8-------5h7h8-------|
|-------------------------|---------------------------|
|-------------------------|---------------------------|
|-------------------------|---------------------------|
|-------------------------|---------------------------|
|
| Gtrs I, II
|-------------------------|---------------------------|
|-------------------------|---------------------------|
|-------------------------|---------------------------|
|-------------------------|---------------------------|
|-2-----------------------|-(2)-----------------------|
|-0-----------------------|-(0)-----------------------|


  D/F#
|--------7h8h10--------7h8h10-|----------7h8h10--------7h8h10-|
|-7h8h10--------7h8h10--------|--7h=8h10--------7h8h10--------|
|-----------------------------|-------------------------------|
|-----------------------------|-------------------------------|
|-----------------------------|-------------------------------|
|-----------------------------|-------------------------------|
|
|-----------------------------|-------------------------------|
|-----------------------------|-------------------------------|
|-----------------------------|-------------------------------|
|-----------------------------|-------------------------------|
|-5---------------------------|-(5)---------------------------|
|-2---------------------------|-(2)---------------------------|


  G5
|---------8h10h12---------8h10h12-|-----------8h10h12---------8h10h12-|
|-8h10h12---------8h10h12---------|--8h=10h12---------8h10h12---------|
|---------------------------------|-----------------------------------|
|---------------------------------|-----------------------------------|
|---------------------------------|-----------------------------------|
|---------------------------------|-----------------------------------|
|
|---------------------------------|-----------------------------------|
|---------------------------------|-----------------------------------|
|---------------------------------|-----------------------------------|
|---------------------------------|-----------------------------------|
|-5-------------------------------|-(5)-------------------------------|
|-3-------------------------------|-(3)-------------------------------|


  C5                                G5            D/F#
|---------8h10h12---------8h10h12-|--------7h8h10--------7h8h10-|
|-8h10h12---------8h10h12---------|-7h8h10--------7h8h10--------|
|---------------------------------|-----------------------------|
|---------------------------------|-----------------------------|
|---------------------------------|-----------------------------|
|---------------------------------|-----------------------------|
|
|---------------------------------|-----------------------------|
|---------------------------------|-----------------------------|
|---------------------------------|-----------------------------|
|-5-------------------------------|-----------------------------|
|-3-------------------------------|-5-------------5-------------|
|---------------------------------|-3-------------2-------------|


  E5
|---------5h=7h=8---------5h=7h=8-|-----------5h=7h=8---------5h=7h=8-|
|-5h=7h=8---------5h=7h=8---------|--5h==7h=8---------5h=7h=8---------|
|---------------------------------|-----------------------------------|
|---------------------------------|-----------------------------------|
|---------------------------------|-----------------------------------|
|---------------------------------|-----------------------------------|
|
| Gtr IV
|---------8h10h12---------8h10h12-|-----------8h10h12---------8h10h12-|
|-8h10h12---------8h10h12---------|--8h=10h12---------8h10h12---------|
|---------------------------------|-----------------------------------|
|---------------------------------|-----------------------------------|
|---------------------------------|-----------------------------------|
|---------------------------------|-----------------------------------|
|
| Gtrs I, II
|---------------------------------|-----------------------------------|
|---------------------------------|-----------------------------------|
|---------------------------------|-----------------------------------|
|---------------------------------|-----------------------------------|
|-2-------------------------------|-(2)-------------------------------|
|-0-------------------------------|-(0)-------------------------------|


  D/F#
|-----------7h=8h10-----------7h=8h10-|------------7h=8h10-----------7h=8h10-|
|--7h=8h10-----------7h=8h10----------|--7h==8h10-----------7h=8h10----------|
|-------------------------------------|--------------------------------------|
|-------------------------------------|--------------------------------------|
|-------------------------------------|--------------------------------------|
|-------------------------------------|--------------------------------------|
|
|----------10h12h14----------10h12h14-|-----------10h12h14----------10h12h14-|
|-10h12h13----------10h12h13----------|-10h=12h13----------10h12h13----------|
|-------------------------------------|--------------------------------------|
|-------------------------------------|--------------------------------------|
|-------------------------------------|--------------------------------------|
|-------------------------------------|--------------------------------------|
|
|-------------------------------------|--------------------------------------|
|-------------------------------------|--------------------------------------|
|-------------------------------------|--------------------------------------|
|-------------------------------------|--------------------------------------|
|--5----------------------------------|-(5)----------------------------------|
|--2----------------------------------|-(2)----------------------------------|


  G5
|-----------8h10h12-----------8h10h12-|------------8h10h12-----------8h10h12-|
|--8h10h12-----------8h10h12----------|--8h=10h12-----------8h10h12----------|
|-------------------------------------|--------------------------------------|
|-------------------------------------|--------------------------------------|
|-------------------------------------|--------------------------------------|
|-------------------------------------|--------------------------------------|
|
|----------12h14h15----------12h14h15-|-----------12h14h15----------12h14h15-|
|-12h13h15----------12h13h15----------|-12h=13h15----------12h13h15----------|
|-------------------------------------|--------------------------------------|
|-------------------------------------|--------------------------------------|
|-------------------------------------|--------------------------------------|
|-------------------------------------|--------------------------------------|
|
|-------------------------------------|--------------------------------------|
|-------------------------------------|--------------------------------------|
|-------------------------------------|--------------------------------------|
|-------------------------------------|--------------------------------------|
|--5----------------------------------|-(5)----------------------------------|
|--3----------------------------------|-(3)----------------------------------|


  C5                                    C5/G              D/F#
|-----------8-10-12-----------8-10-12-|-----------7--8-10-----------7--8-10-|
|--8-10-12-----------8-10-12----------|--7--8-10-----------7--8-10----------|
|-------------------------------------|-------------------------------------|
|-------------------------------------|-------------------------------------|
|-------------------------------------|-------------------------------------|
|-------------------------------------|-------------------------------------|
|
|----------12-14-15----------12-14-15-|----------10-12-14----------10-12-14-|
|-12-13-15----------12-13-15----------|-10-12-13----------10-12-13----------|
|-------------------------------------|-------------------------------------|
|-------------------------------------|-------------------------------------|
|-------------------------------------|-------------------------------------|
|-------------------------------------|-------------------------------------|
|
|-------------------------------------|-------------------------------------|
|-------------------------------------|-------------------------------------|
|-------------------------------------|-------------------------------------|
|--5----------------------------------|-------------------------------------|
|--3----------------------------------|--3-----------------5----------------|
|-------------------------------------|--3-----------------2----------------|


    E5
    Gtr III
||----------------------------------|---------------------------------------10-|
||o---------------------------------|------------------10-12h13p12-10-12-13----|
||--------------------------------7-|-11h12p11-9-11-12-------------------------|
||----------------7-9h10p9-7-9-10---|------------------------------------------|
||o-9h10p9-7-9-10-------------------|------------------------------------------|
||----------------------------------|------------------------------------------|
|
|   Gtrs I, II
|   PM----------------------------------------------------------------------|
||----------------------------------|------------------------------------------|
||o---------------------------------|------------------------------------------|
||----------------------------------|------------------------------------------|
||----------------------------------|------------------------------------------|
||o-2------2-2--2-2-2------2-2--2-2-|--2-------2--2--2--2--2--------2--2--2--2-|
||--0------0-0--0-0-0------0-0--0-0-|--0-------0--0--0--0--0--------0--0--0--0-|


  C5                          B5
|-12p0-0-10p0-0-8p0-0-7p0-0-|-10-8---------------------------||
|---------------------------|------12-10-8------------------o||
|---------------------------|--------------11-9-7------------||
|---------------------------|---------------------10-9-7-----||
|---------------------------|----------------------------10-o||
|---------------------------|--------------------------------||
|
|---------------------------|--------------------------------||
|---------------------------|-------------------------------o||
|---------------------------|--------------------------------||
|--5------------------------|--4-----------------------------||
|--3------------------------|--2----------------------------o||
|---------------------------|--------------------------------||


    E5
    Gtr III
||--------------------------------------------|
||o-------------------------------------------|
||------------------------------------------7-|
||---------------------7--9h10p=9--7--9-10----|
||o--9h10p=9--7--9-10-------------------------|
||--------------------------------------------|
|
|   Gtr IV
||--------------------------------------------|
||o-------------------------------------------|
||--------------------------------------------|
||-----------------------12h14p12----12-14-16-|
||o-12h14p12----12-14-15----------15----------|
||-----------15-------------------------------|
|
|   Gtrs I, II
|    PM----------------------------------------
||--------------------------------------------|
||o-------------------------------------------|
||--------------------------------------------|
||--------------------------------------------|
||o--2--------2--2--2--2--2--------2--2--2--2-|
||---0--------0--0--0--0--0--------0--0--0--0-|


|----------------------------------------10-|
|-------------------10-12h13p12-10-12-13----|
|-11h12p11--9-11-12-------------------------|
|-------------------------------------------|
|-------------------------------------------|
|-------------------------------------------|
|
|----------------------------------------14-|
|-------------------13-15h17p15-13-15-17----|
|-14h16p14----14-16-------------------------|
|----------17-------------------------------|
|-------------------------------------------|
|-------------------------------------------|
|
|----------------------------------------|
|-------------------------------------------|
|-------------------------------------------|
|-------------------------------------------|
|-------------------------------------------|
|--2--------2--2--2--2--2--------2--2--2--2-|
|--0--------0--0--0--0--0--------0--0--0--0-|


  1.
  C5                            B5
|-12p0-0-10p0-0--8p0-0--7p0-0-|-10--8--------------------------------||
|-----------------------------|-------12-10--8----------------------o||
|-----------------------------|----------------11--9--7--------------||
|-----------------------------|-------------------------10--9--7-----||
|-----------------------------|----------------------------------10-o||
|-----------------------------|--------------------------------------||
|
|-15p0-0-14p0-0-12p0-0-10p0-0-|-14-12--------------------------------||
|-----------------------------|-------15-13-12----------------------o||
|-----------------------------|----------------14-12-----------------||
|-----------------------------|----------------------16-14-12--------||
|-----------------------------|-------------------------------15-14-o||
|-----------------------------|--------------------------------------||
|
|-----------------------------|--------------------------------------||
|-----------------------------|-------------------------------------o||
|-----------------------------|--------------------------------------||
|--5--------------------------|--4-----------------------------------||
|--3--------------------------|--2----------------------------------o||
|-----------------------------|--------------------------------------||


  2.
  C5
|-12p0-0-10p0-0--8p0-0--7p0-0-|
|-----------------------------|
|-----------------------------|
|-----------------------------|
|-----------------------------|
|-----------------------------|
|
|-15p0-0-14p0-0-12p0-0-10p0-0-|
|-----------------------------|
|-----------------------------|
|-----------------------------|
|-----------------------------|
|-----------------------------|
|
|-----------------------------|
|-----------------------------|
|-----------------------------|
|--5--------------------------|
|--3--------------------------|
|-----------------------------|


  B5
|-10p=8p=7-----------------------------------------------------------|
|----------10p=8p=7--------------------------------------------------|
|--------------------9p=7p5---------9p=7p5---------------------------|
|----------------------------9p7p5----------9p=7p5-------------------|
|---------------------------------------------------9p=7p5-----------|
|-----------------------------------------------------------8p=7p5---|
|
|-14p12p10-----------------------------------------------------------|
|----------13p12p10--------------------------------------------------|
|-------------------12p11p9--------12p11p9---------------------------|
|---------------------------10p9p7---------12p10p9-------------------|
|--------------------------------------------------12p10p9-----------|
|----------------------------------------------------------12p10p8---|
|
|--------------------------------------------------------------------|
|--------------------------------------------------------------------|
|--------------------------------------------------------------------|
|--4-----------------------------------------------------------------|
|--2-----------------------------------------------------------------|
|--------------------------------------------------------------------|


              Chorus
     Q=210
 4/4
     Gtrs III, IV
|-----------||-------------------|-------------------|
|-----------||-------------------|-------------------|
|-----------||-------------------|-------------------|
|-----------||-------------------|-------------------|
|-7---------||-------------------|-------------------|
|-----------||-------------------|-------------------|
|
|    Gtr I
|-----------||-------------------|-------------------|
|-----------||-------------------|-------------------|
|-----------||-------------------|-------------------|
|-----------||-------------------|-------------------|
|-----------||-------------------|-------------------|
|-----------||-------------------|-------------------|
|
|    Gtr II
|-----------||-------------------|-------------------|
|-----------||-------------------|-------------------|
|-----------||-------------------|-------------------|
|---------7-||-(7)---7---8---5-7-|-(7)---7---8---5-7-|
|-----------||-----0---0---0-----|-----0---0---0-----|
|-----------||-------------------|-------------------|


                                    A5
|-------------------|-----------------|
|-------------------|-----------------|
|-------------------|-----------------|
|-------------------|-----------------|
|-------------------|-----------------|
|-------------------|-----------------|
|
|-------------------|-----------------|
|-------------------|-----------------|
|-------------------|---------------2-|
|-------------------|---------------2-|
|-------------------|---------------0-|
|-------------------|-----------------|
|
|-------------------|-----------------|
|-------------------|-----------------|
|-------------------|-----------------|
|-(7)---7---8---5---|-7---3---5---2-7-|
|-----0---0---0---0-|---0---0---0-----|
|-------------------|-----------------|


                                                                          N.(A)
  Gtr I
|-------------------|-------------------|-------------------|------------------|
|-------------------|-------------------|-------------------|------------------|
|-(2)-------------2-|-(2)-------------2-|-(2)---------------|------------------|
|-(2)-------------2-|-(2)-------------2-|-(2)---------------|---------------11-|
|-(0)-------------0-|-(0)-------------0-|-(0)---------------|------------------|
|-------------------|-------------------|-------------------|------------------|
|
| Gtr II
|-------------------|-------------------|-------------------|------------------|
|-------------------|-------------------|-------------------|------------------|
|-------------------|-------------------|-------------------|------------------|
|-(7)---7---8---5-7-|-(7)---7---8---5-7-|-(7)---7---8---5---|-7---3---5---2--7-|
|-----0---0---0-----|-----0---0---0-----|-----0---0---0---0-|---0---0---0------|
|-------------------|-------------------|-------------------|------------------|


         (A)  (Bb) (G(A)              (Bb) (G(A)
|-----------------------|-----------------------|
|-----------------------|-----------------------|
|-----------------------|-----------------------|
|-(11)---11---12---8-11-|-(11)---11---12---8-11-|
|------0----0----0------|------0----0----0------|
|-----------------------|-----------------------|
|
|-----------------------|-----------------------|
|-----------------------|-----------------------|
|-----------------------|-----------------------|
|--(7)----7----8---5--7-|--(7)----7----8---5--7-|
|------0----0----0------|------0----0----0------|
|-----------------------|-----------------------|


              (Bb) (Gm)  (A)  (F) (Gm)(E(A)
|----------------------|-------------------|
|----------------------|-------------------|
|----------------------|-------------------|
|-(11)---11---12---8---|-11---7---8---5-11-|
|------0----0----0---0-|----0---0---0------|
|----------------------|-------------------|
|
|----------------------|-------------------|
|----------------------|-------------------|
|----------------------|-------------------|
|--(7)----7----8---5---|--7---3---5---2--7-|
|------0----0----0---0-|----0---0---0------|
|----------------------|-------------------|


              (Bb) (G(A)              (Bb) (G(A)
|-----------------------|-----------------------|
|-----------------------|-----------------------|
|-----------------------|-----------------------|
|-(11)---11---12---8-11-|-(11)---11---12---8-11-|
|------0----0----0------|------0----0----0------|
|-----------------------|-----------------------|
|
|-----------------------|-----------------------|
|-----------------------|-----------------------|
|-----------------------|-----------------------|
|--(7)----7----8---5--7-|--(7)----7----8---5--7-|
|------0----0----0------|------0----0----0------|
|-----------------------|-----------------------|


              (Bb) (Gm)  (A)  (F) (Gm)(EA5
|----------------------|------------------|
|----------------------|------------------|
|----------------------|------------------|
|-(11)---11---12---8---|-11---7---8---5-7-|
|------0----0----0---0-|----0---0---0-----|
|----------------------|------------------|
|
|----------------------|------------------|
|----------------------|------------------|
|----------------------|----------------2-|
|--(7)----7----8---5---|--7---3---5---2-2-|
|------0----0----0---0-|----0---0---0---0-|
|----------------------|------------------|


                  Bb5                 Eb5
|-------------------|-------------------|
|-------------------|-------------------|
|-------------------|-------------------|
|-(7)---7---8---5-7-|-(7)---7---8---5-7-|
|-----0---0---0-----|-----0---0---0-----|
|-------------------|-------------------|
|
|-------------------|-------------------|
|-------------------|-------------------|
|-(2)-------------3-|-(3)-------------8-|
|-(2)-------------3-|-(3)-------------8-|
|-(0)-------------1-|-(1)-------------6-|
|-------------------|-------------------|


                      F5       G5     A5
|-------------------|-------------------|
|-------------------|-------------------|
|-------------------|-------------------|
|-(7)---7---8---5---|--7---3----5---2-7-|
|-----0---0---0---0-|----0---0----0-----|
|-------------------|-------------------|
|
|-------------------|-------------------|
|-------------------|-------------------|
|-(8)---------------|-10-------12-----2-|
|-(8)---------------|-10-------12-----2-|
|-(6)---------------|--8-------10-----0-|
|-------------------|-------------------|


                  Bb5                 Eb5
|-------------------|-------------------|
|-------------------|-------------------|
|-------------------|-------------------|
|-(7)---7---8---5-7-|-(7)---7---8---5-7-|
|-----0---0---0-----|-----0---0---0-----|
|-------------------|-------------------|
|
|-------------------|-------------------|
|-------------------|-------------------|
|-(2)-------------3-|-(3)-------------8-|
|-(2)-------------3-|-(3)-------------8-|
|-(0)-------------1-|-(1)-------------6-|
|-------------------|-------------------|


                      F5       G5
                                       ~~
|-------------------|--------------------|
|-------------------|--------------------|
|-------------------|-----------------14-|
|-(7)---7---8---5---|--7---3----5---2----|
|-----0---0---0---0-|----0---0----0------|
|-------------------|--------------------|
|
|-------------------|--------------------|
|-------------------|--------------------|
|-(8)---------------|-10-------12--------|
|-(8)---------------|-10-------12------7-|
|-(6)---------------|--8-------10--------|
|-------------------|--------------------|


   Outro
    N.C.
      ~~~~               ~~~~~~~~~                ~~~~~~~~~                ~~
||-------------------------|------------------------|------------------------|
||o------------------------|------------------------|------------------------|
||--(14)---14---15---12-14-|-(14)---14---15---12-14-|-(14)---14---15---12-14-|
||-------------------------|------------------------|------------------------|
||o------0----0----0-------|------0----0----0-------|------0----0----0-------|
||-------------------------|------------------------|------------------------|
|
||-------------------------|------------------------|------------------------|
||o------------------------|------------------------|------------------------|
||-------------------------|------------------------|------------------------|
||---(7)----7----8----5--7-|--(7)----7----8----5--7-|--(7)----7----8----5--7-|
||o------0----0----0-------|------0----0----0-------|------0----0----0-------|
||-------------------------|------------------------|------------------------|


    ~~~~               ~~~~~~~~~~~
|-------------------------||-----------*|
|------------------------o||-----------*|
|-(14)---14---15---12-14--||-(14)------*|
|-------------------------||-----------*|
|------0----0----0-------o||-----------*|
|-------------------------||-----------*|
|
|-------------------------||-----------*|
|------------------------o||-----------*|
|-------------------------||-----------*|
|--(7)----7----8----5--7--||--(7)------*|
|------0----0----0-------o||-----------*|
|-------------------------||-----------*|


Tablature Legend
----------------
 h   - hammer-on
 p   - pull-off
 b   - bend
 pb  - pre-bend
 r   - bend release (if no number after the r, then release immediately)
 /\  - slide into or out of (from/to "nowhere")
 s   - legato slide
 S   - shift slide
  - natural harmonic
[n]  - artificial harmonic
n(n) - tapped harmonic
 ~   - vibrato
 tr  - trill
 T   - tap
 TP  - trem. picking
 PM  - palm muting
\n/  - tremolo bar dip; n = amount to dip


Misc Legend
-----------
 |  - bar
||  - double bar
||o - repeat start
o|| - repeat end
*|  - double bar (ending)
 :  - bar (freetime)
 $  - Segno
 &  - Coda





Comments


Popular Arch Enemy tabs & chords
Dead Eyes See No Future Bass Tabs
We Will Rise 2 Bass Tabs
Beast Of Man (Solo) Tabs
Burning Angel 2 Tabs
Carry The Cross Intro Tabs
Dead Eyes See No Future 2 Tabs
Enemy Within 3 Tabs
Heart Of Darkness Tabs
Tears Of The Damned Tabs
Thorns In My Flesh Intro Tabs


Song lyrics



↑ Back to top | Tablatures and chords are parodies/interpretations of the original songs. You may use it for private study, scholarship, research or language learning purposes only
© 2014 AZChords.com Contact us | Privacy policy | DMCA | Add/correct tabs | Request tabs | Top 50 tabs