>
 >
Dead Bury Their Dead

Dead Bury Their Dead Guitar Tabs

Arch Enemy - Dead Bury Their Dead chords, tabs, tablatures, lyrics

Guitar lessons | Add/correct | Request | Top 50 tabs Artists:  A B C D E F G H I J K L M N O P Q R S T U V W X Y Z 0-9

Dead Bury Their Dead Guitar Tabs – Arch Enemy

CD, Sheet music, Poster

Do you like Dead Bury Their Dead? Share with your friends now
Bass TabsBass Tabs v2Bass Tabs v3TabsTabs v2Tabs v3Tabs v4Tabs v5
Tuning: Drop D Tuning (DADGBE)
Transcribed: Daniel Cervantes 
Mx tabs so yeahrock on Daniel!!!

Riff A 0:00 8 times
E--------------------------------------------------------------------------
B--------------------------------------------------------------------------
G--------------------------------------------------------------------------
D------------9------10----7-----7/9----------9-------10---------6/7--------
A------------7-------8-----5----5/7----------7-------8---10-----4/5--------
D-0-0-0-0-------0-0-----0-----0------0-0-0-0---0-0------0-8---0------------

Riff B 0:36 4 times
E---------------------------------------------------------------------------------
A---------------------------------------------------------------------------------
G---------------------------------------------------------------------------------
D------^-------^-------^-------^-------^--------^------^-----^--------^------^----
A------5-7-----5-7-----5-7----5-7-----5-7-------5-8----5-8----3-5-----3-5----3-5--
D-5-5------5--------5-------5-------5------6-6------6-------3------3------3-------

Riff C 0:53
E-----------------------------------------------------------------------------------
B-----------------------------------------------------------------------------------
G-----------------------------------------------------------------------------------
D-------6/7----6/7-----6/7----6/7-----6/7-------9/10-----9/10-----5/6---5/6----5/6-
A-------7/8----7/8-----7/8----7/8-----7/8------10/11----10/11-----6/7---6/7----6/7-
D-0-0-------0-------0------0-------0-------0-0---------0--------0-----0------0------

Riff D 1:02
E-----------------------------------------------------------
B-----------------------------------------------------------
G-----------------------------------------------------------
D-----------------------------------------------------------
A-5-5-5-5-5-5---7-7-7-7-7-7---6-6-6-6-6-6---5-5-5-5-5-5-5---
D-5-5-5-5-5-5---5-5-5-5-5-5---5-5-5-5-5-5---5-5-5-5-5-5-5---

Play
Riff B
Riff C	
Riff D


Riff E 1:35 4 times
E------------------------------------------------------------------
B------------------------------------------------------------------
G------------------------------------------------------------------
D------------------------------------------------------------------
A--------------11-11-11-11-11-11---10-10-10-10-10-10---7-7-7-7-7-7-
D-0-0-0-0-0-0--12-12-12-12-12-12---11-11-11-11-11-11---8-8-8-8-8-8-

1:46
E-----------------------------------------------------------------
B-----------------------------------------------------------------
G-----------------------------------------------------------------
D-----------------------------------------------------------------
A-2-2-2-2-2-2-2-2---7-7-7-7-7-7-7-7---5-5-5-5-5-5-5-5----------2--
D-0-0-0-0-0-0-0-0---5-5-5-5-5-5-5-5---3-3-3-3-3-3-3-3---6-5-3--0--

E----------------------
B----------------------
G----------------------      Rhythm over Solo 
D-----5----------------
A-2---3---7----3-------
D-0-------5----5-------

  ^ ^     ^ ^             ^ ^             ^ ^     ^ ^     ^ ^         
E-8-5-0---8-5-0---xs-8---7-5-0---xs-8---7-4-0---7-4-0---7-3-0---------
B-----------------------------------------------------------------8-xs-
G-----------------------------------------------------------------------
D-----------------------------------------------------------------------
A-----------------------------------------------------------------------
D-----------------------------------------------------------------------

  ^ ^     ^ ^     ^ ^     ^ ^     ^ ^     ^ ^     ^ ^     ^ ^     ^  ^ 
E-7-3-0---7-3-0---8-5-0---8-5-0---8-5-0---8-5-0---8-5-0---8-5-0---11-5-0-
B------------------------------------------------------------------------
G------------------------------------------------------------------------
D------------------------------------------------------------------------
A------------------------------------------------------------------------
D------------------------------------------------------------------------

  ^ ^     ^ ^     ^ ^     ^ ^     ^ ^     ^ ^     ^ ^     ^ ^     ^ ^   
E-8-5-0---7-5-0---7-5-0---7-5-0---7-5-0---7-5-0---7-5-0---8-5-0---7-5-0-
B-----------------------------------------------------------------------
G-----------------------------------------------------------------------
D-----------------------------------------------------------------------
A-----------------------------------------------------------------------
D-----------------------------------------------------------------------
   
  ^ ^     ^ ^     ^ ^     ^ ^     ^ ^     ^ ^     ^ ^     ^ ^     ^ ^ 
E-7-5-0---7-4-0---7-4-0---7-4-0---7-4-0---7-4-0---7-4-0---8-4-0---7-3-0-
B-----------------------------------------------------------------------
G-----------------------------------------------------------------------
D-----------------------------------------------------------------------
A-----------------------------------------------------------------------
D-----------------------------------------------------------------------

Play
Riff A
Bass Line
Riff A

3:26
E-------------------------------------------
B-------------------------------------------
G-------------------------------------------
D-------------------------------------------
A-------------------------------------------
D-0-0-0-0-0-0-0-0---12-12-12-12-12-12-12-12

E----------------------------------------------
B----------------------------------------------
G----------------------------------------------
D----------------------------------------------
A----------------------------------------------
D-11-11-11-11-11-11-11-11---8-8-8-8-8-8-8-8-8--

3:43 Play Riff E

There you go Daniel I hope you're happy.........it took me forever to write this tab.....bastard lol j/k





Comments


Popular Arch Enemy tabs & chords
Burning Angel Bass Tabs
Beast Of Man Tabs
Christopher Amott Tabs
Cosmic Retribution Tabs
Dark Of The Sun 2 Tabs
Hydra 1 Tabs
Marching On A Dead End Road 2 Tabs
Seed Of Hate Tabs
The Last Enemy Tabs
Vultures 1 Tabs


Song lyrics



↑ Back to top | Tablatures and chords are parodies/interpretations of the original songs. You may use it for private study, scholarship, research or language learning purposes only
© 2014 AZChords.com Contact us | Privacy policy | DMCA | Add/correct tabs | Request tabs | Top 50 tabs