>
 >
Damnations Way

Damnations Way Guitar Tabs

Arch Enemy - Damnations Way chords, tabs, tablatures, lyrics

Guitar lessons | Add/correct | Request | Top 50 tabs Artists:  A B C D E F G H I J K L M N O P Q R S T U V W X Y Z 0-9

Damnations Way Guitar Tabs – Arch Enemy

CD, Sheet music, Poster

Do you like Damnations Way? Share with your friends now
TabsTabs v2Tabs v3
A R C H  E N E M Y  -  D A M N A T I O N ' S  W A Y
                       From the Album STIGMATA IMPORT
                            Copyright 1998 W.A.R.

                            Version 1.0 - JULY '02


For Questions, Comments, Newest Version, or Corrections contact


.  - palm mute                  /  - slide up to
\  - slide down to              ~  - vibrato
"  - tremelo picking           ( ) - ghost note
b  - bend                       h  - hammer-on
fb - full bend (1 step)         p  - pull-off
hb - half bend (1/2 step)       r  - release a bend
t  - tapping                    ah - artificial harmonic

Tune Gtr to B

--DAMNATION'S WAY--

[Riff A]
[-----------------------]
[-----------------------]
[*---------------------*]GTR 1 [left channel]
[*----------4----------*] 
[--2--4--5--2--6--5--3--]
[--0--2--3-----4--3--1--]

[-----------------------]
[-----------------------]
[*---------------------*]GTR 2 [right channel]
[*---------------------*]
[-----------2-----------]
[--0--2--3-----4--3--1--]


[Riff B]
[------------------------------------|------------------------------------]
[------------------------------------|------------------------------------]
[*-----------------------------------|--------------------------6--------*]GTR 1
[*-----------------------------------|-----------------------------------*] 
[----------2----------------3--------|---------2----------------4---------]
[--0--2"3-----3--2--1--3"4-----4--3--|-0--2"3-----3--2--1--3"4------------]
   .  . .  .  .  .  .  . .  .  .  .    .  . .  .  .  .  .  . .  
[------------------------------------|------------------------------------]
[------------------------------------|------------------------------------]
[*-----------------------------------|-----------------------------------*]GTR 2
[*-----------------------------------|--------------------------6--------*]
[------------------------------------|--------------------------4---------]
[--0---------------------------------|------------------------------------]

[------------------------------------|------------------------------------]
[------------------------------------|------------------------------------]
[*-----------------------------------|--------------------------6--------*]GTR 1
[*-----------------------------------|-----------------------------------*] 
[----------2----------------3--------|---------2----------------4---------]
[--0--2"3-----3--2--1--3"4-----4--3--|-0--2"3-----3--2--1--3"4------------]
   .  . .  .  .  .  .  . .  .  .  .    .  . .  .  .  .  .  . .     
[------------------------------------|------------------------------------]
[------------------------------------|------------------------------------]
[*-----------------------------------|-----------------------------------*]GTR 2
[*-----------------------------------|--------------------------6--------*] 
[----------2----------------3--------|---------2----------------4---------]
[--0--2"3-----3--2--1--3"4-----4--3--|-0--2"3-----3--2--1--3"4------------]
   .  . .  .  .  .  .  . .  .  .  .    .  . .  .  .  .  .  . .   
[------------------------------------|------------------------------------]
[------------------------------------|------------------------------------]
[*-----------------------------------|--------------------------6/10-----*]GTR 1
[*-----------------------------------|-----------------------------------*] 
[----------2----------------3--------|---------2----------------4/8-------]
[--0--2"3-----3--2--1--3"4-----4--3--|-0--2"3-----3--2--1--3"4---sl-------]
   .  . .  .  .  .  .  . .  .  .  .    .  . .  .  .  .  .  . .  
[------------------------------------|------------------------------------]
[------------------------------------|------------------------------------]
[*-----------------------------------|--------------------------6/10-----*]GTR 2
[*-----------------------------------|-----------------------------------*] 
[----------2----------------3--------|---------2----------------4/8-------]
[--0--2"3-----3--2--1--3"4-----4--3--|-0--2"3-----3--2--1--3"4---sl-------]
   .  . .  .  .  .  .  . .  .  .  .    .  . .  .  .  .  .  . .  
[------------------------------------|------------------------------------]
[------------------------------------|------------------------------------]
[*-----------------------------------|--------------------------6--------*]GTR 1
[*-----------------------------------|-----------------------------------*] 
[----------2----------------3--------|---------2----------------4---------]
[--0--2"3-----3--2--1--3"4-----4--3--|-0--2"3-----3--2--1--3"4------------]
   .  . .  .  .  .  .  . .  .  .  .    .  . .  .  .  .  .  . .    
[------------------------------------|------------------------------------]
[------------------------------------|------------------------------------]
[*-----------------------------------|-----------------------------------*]GTR 2
[*-----------------------------------|--------------------------6--------*] 
[----------2----------------3--------|---------2----------------4---------]
[--0--2"3-----3--2--1--3"4-----4--3--|-0--2"3-----3--2--1--3"4------------]
   .  . .  .  .  .  .  . .  .  .  .    .  . .  .  .  .  .  . .     
[------------------------------------|------------------------------------]
[------------------------------------|------------------------------------]
[*-----------------------------------|--------------------------6--------*]GTR 1
[*-----------------------------------|-----------------------------------*] 
[----------2----------------3--------|---------2----------------4---------]
[--0--2"3-----3--2--1--3"4-----4--3--|-0--2"3-----3--2--1--3"4------------]
   .  . .  .  .  .  .  . .  .  .  .    .  . .
[------------------------------------|------------------------------------]
[------------------------------------|------------------------------------]
[*-----------------------------------|-----------------------------------*]GTR 2
[*-----------------------------------|--------------------------6--------*] 
[----------2----------------3--------|---------2----------------4---------]
[--0--2"3-----3--2--1--3"4-----4--3--|-0--2"3-----3--2--1--3"4------------]
   .  . .  .  .  .  .  . .  .  .  .    .  . .


[Riff C]
[----------------------------------------------------------------------------]
[----------------------------------------------------------------------------]
[*--------------------------------------------------------------------------*]GTR 1
[*------------------------------5--------7--------4--------5----------------*] 
[-----------7__8__7__8----------3--------5--------2--------3-----------------]
[--0--000-----h--p--h---0--000-----0--0-----0--0-----0--0-----0--0--5--4--5--]
   .  ...               .  ...     .  .     .  .     .  .     .  .  .  .  .
[----------------------------------------------------------------------------]
[----------------------------------------------------------------------------]
[*--------------------------------------------------------------------------*]GTR 2
[*------------------------------5--------7--------4--------5----------------*] 
[-----------7__8__7__8----------3--------5--------2--------3-----------------]
[--0--000-----h--p--h---0--000-----0--0-----0--0-----0--0-----0--0--5--4--5--]
   .  ...               .  ...     .  .     .  .     .  .     .  .  .  .  .
[----------------------------------------------------------------------------]
[----------------------------------------------------------------------------]
[*--------------------------------------------------------------------------*]GTR 1
[*------------------------------5--------7--------4--------5----------------*] 
[-----------7__8__7__8----------3--------5--------2--------3-----------------]
[--0--000-----h--p--h---0--000-----0--0-----0--0-----0--0-----0--0--4~-------]
   .  ...               .  ...     .  .     .  .     .  .     .  .[a.h.]
[----------------------------------------------------------------------------]
[----------------------------------------------------------------------------]
[*--------------------------------------------------------------------------*]GTR 2
[*---------6__7__6__7-----------5--------7--------4--------5----------------*] 
[------------h--p--h------------3--------5--------2--------3-----------------]
[--0--000---------------0--000-----0--0-----0--0-----0--0-----0--0--4~-------]
   .  ...               .  ...     .  .     .  .     .  .     .  .[a.h.]


Repeat Riff C 1 time


[Riff B.1]
[------------------------------------|------------------------------------]
[------------------------------------|------------------------------------]
[*-----------------------------------|--------------------------6--------*]GTR 1
[*-----------------------------------|-----------------------------------*] 
[----------2----------------3--------|---------2----------------4---------]
[--0--2"3-----3--2--1--3"4-----4--3--|-0--2"3-----3--2--1--3"4------------]
   .  . .  .  .  .  .  . .  .  .  .    .  . .  .  .  .  .  . .    
[------------------------------------|------------------------------------]
[------------------------------------|------------------------------------]
[*-----------------------------------|-----------------------------------*]GTR 2
[*-----------------------------------|--------------------------6--------*] 
[----------2----------------3--------|---------2----------------4---------]
[--0--2"3-----3--2--1--3"4-----4--3--|-0--2"3-----3--2--1--3"4------------]
   .  . .  .  .  .  .  . .  .  .  .    .  . .  .  .  .  .  . .     
[------------------------------------|------------------------------------]
[------------------------------------|------------------------------------]
[*-----------------------------------|--------------------------6--------*]GTR 1
[*-----------------------------------|-----------------------------------*] 
[----------2----------------3--------|---------2----------------4---------]
[--0--2"3-----3--2--1--3"4-----4--3--|-0--2"3-----3--2--1--3"4--*---------]
   .  . .  .  .  .  .  . .  .  .  .    .  . .  .  .  .  .  . .
[------------------------------------|------------------------------------]
[------------------------------------|------------------------------------]
[*-----------------------------------|-----------------------------------*]GTR 2
[*-----------------------------------|--------------------------6--------*] 
[----------2----------------3--------|---------2----------------4---------]
[--0--2"3-----3--2--1--3"4-----4--3--|-0--2"3-----3--2--1--3"4--*---------]
   .  . .  .  .  .  .  . .  .  .  .    .  . .  .  .  .  .  . .


Repeat Riff B.1 2 Times [First 2 bars only]


[Riff D]
[-------------------------------|-------------------------------]
[-------------------------------|-------------------------------]
[*-9----9--7--5----5------------|-5----5--7--9----9------------*]GTR 1
[*-9----9--7--5----5----5----5--|-5----5--7--9----9---9----9---*] 
[--7----7--5--3----3----3----3--|-3----3--5--7----7---7----7----]
[--7----7--5--3----3----3----3--|-3----3--5--7----7---7----7----]
                        .    .                        .    .
[-------------------------------|-------------------------------]
[-------------------------------|-------------------------------]
[*-9----9--7--5----5------------|-5----5--7--9----9------------*]GTR 2
[*-9----9--7--5----5----5----5--|-5----5--7--9----9---9----9---*] 
[--7----7--5--3----3----3----3--|-3----3--5--7----7---7----7----]
[--7----7--5--3----3----3----3--|-3----3--5--7----7---7----7----]
                        .    .                        .    .
[-------------------------------|-------------------------------]
[-------------------------------|-------------------------------]
[*-9----9--7--5----5------------|------------------------------*]GTR 1
[*-9----9--7--5----5----5----5--|------------------------------*] 
[--7----7--5--3----3----3----3--|-3--5--3--2--------------------]
[--7----7--5--3----3----3----3--|----------0--------------------]
                        .    .
[-------------------------------|-------------------------------]
[-------------------------------|-------------------------------]
[*-9----9--7--5----5------------|------------------------------*]GTR 2
[*-9----9--7--5----5----5----5--|------------------------------*] 
[--7----7--5--3----3----3----3--|-3--5--3-----------------------]
[--7----7--5--3----3----3----3--|----------0--------------------]
                        .    .


Repeat Riff D 1 time


[Riff D.1]
[--------------------------------------|--------------------------------------]
[--------------------------------------|--------------------------------------]
[*-------------------------------------|-------------------------------------*]GTR 1
[*-------------------------------------|-------------------------------------*] 
[--/10----9--7~---7---\-/7--9--10~---\-|-/10----9--7~---7----\--3--5--3--2----]
[--sl----------------sl-sl-----------sl|-sl------------------sl----------0----]

[--------------------------------------|--------------------------------------]
[--------------------------------------|--------------------------------------]
[*-------------------------------------|-------------------------------------*]GTR 2
[*-------------------------------------|-------------------------------------*]
[--/7-----5--3~---3---\-/3--5--7~----\-|-/7-----5--3~---3----\--3--5--3-------]
[--sl----------------sl-sl-----------sl|-sl------------------sl----------0----]


Play Riff D.1 1 time
Play Riff B   1 time [First 4 bars only]
Play Riff C   2 times
Play Riff B.1 1 time
Play Riff B.1 1 time [First 2 bars only]
Play Riff D   2 times
Play Riff D.1 2 times


[Fill 1]
[----------------------|-----------------------]
[----------------------|-----------------------]
[*---------------------|----------------------*]GTR 1
[*---------------------|----------------------*] 
[----------------------|-----------------------]
[--5-4-5-4-3-----------|-4-3-4-3-2-------------]
   . . . . *             . . . . *
[----------------------|-----------------------]
[----------------------|-----------------------]
[*---------------------|----------------------*]GTR 2
[*---------------------|----------------------*] 
[----------------------|-----------------------]
[--5-4-5-4-3-----------|-4-3-4-3-2-------------]
   . . . . *             . . . . *


[Riff E]
[------------------------|------------------------]
[------------------------|------------------------]
[*-----------------------|-----------------------*]GTR 1
[*-----------------------|-----------------------*]
[------------------------|------------------------]
[--5--5"4--3--4--4"3--2--|-3--3"2--1--2--2"1--0---]
   .  . .  .  .  . .  *    .  . .  .  .  . .  *
[------------------------|------------------------]
[------------------------|------------------------]
[*-----------------------|-----------------------*]GTR 2
[*-----------------------|-----------------------*]
[------------------------|------------------------]
[--5--5"4--3--4--4"3--2--|-3--3"2--1--2--2"1--0---]
   .  . .  .  .  . .  *    .  . .  .  .  . .  *  


Repeat Riff E 1 time


[Riff E.1]
[------------------|------------------]
[------------------|------------------]
[*-----------------|-----------------*]GTR 1
[*-----------------|-----------------*]
[------------------|------------------]
[--5--5"4--4--4"3--|-4--4"3--3--3"2---]
   .  . .  .  . *    .  . .  .  . *
[------------------|------------------]
[------------------|------------------]
[*-----------------|-----------------*]GTR 2
[*-----------------|-----------------*]
[------------------|------------------]
[--5--5"4--4--4"3--|-4--4"3--3--3"2---]
   .  . .  .  . *    .  . .  .  . *


Repeat Riff E.1 1/2 time


[Fill 2]
[----------------|----------------]
[----------------|----------------]
[*---------------|-9-(9)------/\-*]GTR 1
[*-2-(2)---------|-9-(9)------/\-*]
[--2-(2)---------|-7-(7)------/\--]
[--0-(0)---------|-7-(7)------/\--]
                             slsl
[----------------|----------------]
[----------------|----------------]
[*---------------|-9-(9)------/\-*]GTR 2
[*-2-(2)---------|-9-(9)------/\-*]
[--2-(2)---------|-7-(7)------/\--]
[--0-(0)---------|-7-(7)------/\--]
                             slsl


Play Riff D 2 times


[Riff D.2]
[-------------------------------|-------------------------------]
[-------------------------------|-------------------------------]
[*------------------------------|------------------------------*]GTR 1
[*-5----5--4--2----2----2----2--|-2----2--4--5----5---5----5---*] 
[--7----7--5--3----3----3----3--|-3----3--5--7----7---7----7----]
[-------------------------------|-------------------------------]
                        .    .                        .    .
[-------------------------------|-------------------------------]
[-------------------------------|-------------------------------]
[*-9----9--7--5----5------------|-5----5--7--9----9------------*]GTR 2
[*------------------------------|------------------------------*] 
[--7----7--5--3----3----3----3--|-3----3--5--7----7---7----7----]
[-------------------------------|-------------------------------]
                        .    .                        .    .
[-------------------------------|-------------------------------]
[-------------------------------|-------------------------------]
[*------------------------------|------------------------------*]GTR 1
[*-5----5--4--2----2----2----2--|-2--4--2----------------------*] 
[--7----7--5--3----3----3----3--|-3--5--3--2--------------------]
[-------------------------------|----------0--------------------]
                        .    .
[-------------------------------|-------------------------------]
[-------------------------------|-------------------------------]
[*-9----9--7--5----5------------|-5--7--5----------------------*]GTR 2
[*------------------------------|------------------------------*] 
[--7----7--5--3----3----3----3--|-3--5--3-----------------------]
[-------------------------------|----------0--------------------]
                        .    .


Repeat Riff D.2 1/2 time


[Outro]
[-------------------------------|-------------------------------]
[-------------------------------|-------------------------------]
[*------------------------------|------------------------------*]GTR 1
[*-5----5--4--2----2----2----2--|-2--4--2----------------------*] 
[--7----7--5--3----3----3----3--|-3--5--3--2--------------------]
[-------------------------------|----------0--------------------]
                        .    .             *
[-------------------------------|-------------------------------]
[-------------------------------|-------------------------------]
[*-9----9--7--5----5------------|-5--7--5----------------------*]GTR 2
[*------------------------------|------------------------------*] 
[--7----7--5--3----3----3----3--|-3--5--3--2--------------------]
[-------------------------------|----------0--------------------]
                        .    .             *





Comments


Popular Arch Enemy tabs & chords
We Will Rise 2 Bass Tabs
Burning Angel 1 Tabs
Dead Eyes See No Future Tabs
Enemy Within 3 Tabs
I Am Legend Out For Blood 1 Tabs
My Apocalypse 1 Tabs
The Ides Of March Intro Tabs
The Last Enemy Intro Tabs
Time Capsule Tabs
We Will Rise Tabs


Song lyrics



↑ Back to top | Tablatures and chords are parodies/interpretations of the original songs. You may use it for private study, scholarship, research or language learning purposes only
© 2014 AZChords.com Contact us | Privacy policy | DMCA | Add/correct tabs | Request tabs | Top 50 tabs