» » »

Arch Enemy, Burning Angel Tabs (ver.2)

Artists:  A B C D E F G H I J K L M N O P Q R S T U V W X Y Z # 

Burning Angel Tabs (ver.2)

Arch Enemy Tabs
Rating:
3/5 (2 votes)
Burning Angel lessons Tabs too difficult? Try these video lessons and learn fast
                G#||--------------------------|--------------------------|
D#||--------------------------|--------------------------|
A#||--------------------------|--------------------------|
F ||--7--7--7--7--7--7--7--7--|--7--7--7--7--7--7--7--7--|
C ||--------------------------|--------------------------|



--------------------------|--------------------------|
--------------------------|--------------------------|
--------------------------|--------------------------|
--------------------------|--------------------------|
--8--8--8--8--8--8--8--8--|--8--8--8--8--8--8--8--8--|



--------------------------|--------------------------|
--------------------------|--------------------------|
--------------------------|--------------------------|
--8--8--8--8--8--8--8--8--|--8--8--8--8--8--8--8--8--|
--------------------------|--------------------------|



--------------------------|--------------------------|
--------------------------|--------------------------|
--------------------------|--------------------------|
--7--7--7--7--7--7--7--7--|--6--6--6--6--6--6--6--6--|
--------------------------|--------------------------|



--------------------------|--------------------------|
--------------------------|--------------------------|
--------------------------|--------------------------|
--7--7--7--7--7--7--7--7--|--7--7--7--7--7--7--7--7--|
--------------------------|--------------------------|



--------------------------|--------------------------|
--------------------------|--------------------------|
--------------------------|--------------------------|
--------------------------|--------------------------|
--8--8--8--8--8--8--8--8--|--8--8--8--8--8--8--8--8--|



--------------------------|--------------------------|
--------------------------|--------------------------|
--------------------------|--------------------------|
--8--8--8--8--8--8--8--8--|--8--8--8--8--8--8--8--8--|
--------------------------|--------------------------|



--------------------------|--------------------------|
--------------------------|--------------------------|
--------------------------|--------------------------|
--7--7--7--7--7--7--7--7--|--6--6--6--6--6--6--6--6--|
--------------------------|--------------------------|



--------------------------|--------------------------|
--------------------------|--------------------------|
--------------------------|--------------------------|
--7--7--7--7--7--7--7--7--|--7--7--7--7--7--7--7--7--|
--------------------------|--------------------------|



--------------------------|--------------------------|
--------------------------|--------------------------|
--------------------------|--------------------------|
--------------------------|--------------------------|
--8--8--8--8--8--8--8--8--|--8--8--8--8--8--8--8--8--|



--------------------------|--------------------------|
--------------------------|--------------------------|
--------------------------|--------------------------|
--8--8--8--8--8--8--8--8--|--8--8--8--8--8--8--8--8--|
--------------------------|--------------------------|



--------------------------|--------------------------|
--------------------------|--------------------------|
--------------------------|--------------------------|
--7--7--7--7--7--7--7--7--|--6--6--6--6--6--6--6--6--|
--------------------------|--------------------------|



--------------------------|--------------------------|
--------------------------|--------------------------|
--------------------------|--------------------------|
--7--7--7--7--7--7--7--7--|--7--7--7--7--7--7--7--7--|
--------------------------|--------------------------|



--------------------------|--------------------------|
--------------------------|--------------------------|
--------------------------|--------------------------|
--------------------------|--------------------------|
--8--8--8--8--8--8--8--8--|--8--8--8--8--8--8--8--8--|



--------------------------|--------------------------|
--------------------------|--------------------------|
--------------------------|--------------------------|
--8--8--8--8--8--8--8--8--|--8--8--8--8--8--8--8--8--|
--------------------------|--------------------------|



--------------------------|--------------------------|
--------------------------|--------------------------|
--------------------------|--------------------------|
--7--7--7--7--7--7--7--7--|--6--6--6--6--6--6--6--6--|
--------------------------|--------------------------|



------------------------------|------------------------------|
------------------------------|------------------------------|
------------------------------|------------------------------|
------------------------------|------------------------------|
--5--5-5-5--5-5-5--5-5-5-5-5--|--5--5-5-5--5-5-5--5-5-5-5-5--|



------------------------------|-------------------|
------------------------------|-------------------|
---------------------------5--|-------------------|
------------------------------|--------5----------|
--5--5-5-5--5-5-5--5-5-5-5----|-------------------|



------------------------------|------------------------------|
------------------------------|------------------------------|
------------------------------|------------------------------|
------------------------------|------------------------------|
--5--5-5-5--5-5-5--5-5-5-5-5--|--5--5-5-5--5-5-5--5-5-5-5-5--|



------------------------------|-------------------|
------------------------------|-------------------|
---------------------------5--|-------------------|
------------------------------|--------5----------|
--5--5-5-5--5-5-5--5-5-5-5----|-------------------|



------------------------------|------------------------------|
------------------------------|------------------------------|
------------------------------|------------------------------|
------------------------------|------------------------------|
--5--5-5-5--5-5-5--5-5-5-5-5--|--5--5-5-5--5-5-5--5-5-5-5-5--|



------------------------------|-------------------|
------------------------------|-------------------|
---------------------------5--|-------------------|
------------------------------|--------5----------|
--5--5-5-5--5-5-5--5-5-5-5----|-------------------|



------------------------------|------------------------------|
------------------------------|------------------------------|
------------------------------|------------------------------|
------------------------------|------------------------------|
--5--5-5-5--5-5-5--5-5-5-5-5--|--5--5-5-5--5-5-5--5-5-5-5-5--|



------------------------------|-------------------|---------------------------|
------------------------------|-------------------|---------------------------|
---------------------------5--|-------------------|---------------------------|
------------------------------|--------5----------|---------------------------|
--5--5-5-5--5-5-5--5-5-5-5----|-------------------|--5--7--5--3--2--3--0-0-0--|



------------------------------|------------------------|-------------------|
------------------------------|------------------------|-------------------|
------------------------------|------------------------|-------------------|
------------------------------|-----------------3------|----------5--------|
--0-0-0--0-0-0--0-0-0--0-0-0--|--5--7--5--3--2---------|-------------------|



---------------------------|------------------------------|
---------------------------|------------------------------|
---------------------------|------------------------------|
---------------------------|------------------------------|
--5--7--5--3--2--3--0-0-0--|--0-0-0--0-0-0--0-0-0--0-0-0--|



------------------------|-----------------------------|
------------------------|-----------------------------|
------------------------|-----------------------------|
-----------------3------|----------5------------------|
--5--7--5--3--2---------|-----------------------------|



--------------------------|--------------------------|
--------------------------|--------------------------|
--------------------------|--------------------------|
--7--7--7--7--7--7--7--7--|--7--7--7--7--7--7--7--7--|
--------------------------|--------------------------|



--------------------------|--------------------------|
--------------------------|--------------------------|
--------------------------|--------------------------|
--------------------------|--------------------------|
--8--8--8--8--8--8--8--8--|--8--8--8--8--8--8--8--8--|



--------------------------|--------------------------|
--------------------------|--------------------------|
--------------------------|--------------------------|
--8--8--8--8--8--8--8--8--|--8--8--8--8--8--8--8--8--|
--------------------------|--------------------------|



--------------------------|--------------------------|
--------------------------|--------------------------|
--------------------------|--------------------------|
--7--7--7--7--7--7--7--7--|--6--6--6--6--6--6--6--6--|
--------------------------|--------------------------|



--------------------------|--------------------------|
--------------------------|--------------------------|
--------------------------|--------------------------|
--7--7--7--7--7--7--7--7--|--7--7--7--7--7--7--7--7--|
--------------------------|--------------------------|



--------------------------|--------------------------|
--------------------------|--------------------------|
--------------------------|--------------------------|
--------------------------|--------------------------|
--8--8--8--8--8--8--8--8--|--8--8--8--8--8--8--8--8--|



--------------------------|--------------------------|
--------------------------|--------------------------|
--------------------------|--------------------------|
--8--8--8--8--8--8--8--8--|--8--8--8--8--8--8--8--8--|
--------------------------|--------------------------|



--------------------------|--------------------------|
--------------------------|--------------------------|
--------------------------|--------------------------|
--7--7--7--7--7--7--7--7--|--6--6--6--6--6--6--6--6--|
--------------------------|--------------------------|



------------------------------|------------------------------|
------------------------------|------------------------------|
------------------------------|------------------------------|
------------------------------|------------------------------|
--5--5-5-5--5-5-5--5-5-5-5-5--|--5--5-5-5--5-5-5--5-5-5-5-5--|



------------------------------|-------------------|
------------------------------|-------------------|
---------------------------5--|-------------------|
------------------------------|--------5----------|
--5--5-5-5--5-5-5--5-5-5-5----|-------------------|



------------------------------|------------------------------|
------------------------------|------------------------------|
------------------------------|------------------------------|
------------------------------|------------------------------|
--5--5-5-5--5-5-5--5-5-5-5-5--|--5--5-5-5--5-5-5--5-5-5-5-5--|



------------------------------|-------------------|
------------------------------|-------------------|
---------------------------5--|-------------------|
------------------------------|--------5----------|
--5--5-5-5--5-5-5--5-5-5-5----|-------------------|



------------------------------|------------------------------|
------------------------------|------------------------------|
------------------------------|------------------------------|
------------------------------|------------------------------|
--5--5-5-5--5-5-5--5-5-5-5-5--|--5--5-5-5--5-5-5--5-5-5-5-5--|



------------------------------|-------------------|
------------------------------|-------------------|
---------------------------5--|-------------------|
------------------------------|--------5----------|
--5--5-5-5--5-5-5--5-5-5-5----|-------------------|



------------------------------|------------------------------|
------------------------------|------------------------------|
------------------------------|------------------------------|
------------------------------|------------------------------|
--5--5-5-5--5-5-5--5-5-5-5-5--|--5--5-5-5--5-5-5--5-5-5-5-5--|



------------------------------|-------------------|---------------------------|
------------------------------|-------------------|---------------------------|
---------------------------5--|-------------------|---------------------------|
------------------------------|--------5----------|---------------------------|
--5--5-5-5--5-5-5--5-5-5-5----|-------------------|--5--7--5--3--2--3--0-0-0--|



------------------------------|------------------------|-------------------|
------------------------------|------------------------|-------------------|
------------------------------|------------------------|-------------------|
------------------------------|-----------------3------|----------5--------|
--0-0-0--0-0-0--0-0-0--0-0-0--|--5--7--5--3--2---------|-------------------|



---------------------------|------------------------------|
---------------------------|------------------------------|
---------------------------|------------------------------|
---------------------------|------------------------------|
--5--7--5--3--2--3--0-0-0--|--0-0-0--0-0-0--0-0-0--0-0-0--|



------------------------|-------------------------------|------------------|
------------------------|-------------------------------|------------------|
------------------------|-------------------------------|------------------|
-----------------3------|----------5--------------------|------------------|
--5--7--5--3--2---------|-------------------------------|------------------|



------------------|------------------|---------------------|
------------------|------------------|---------------------|
------------------|------------------|---------------------|
------------------|------------------|----------2---3---4--|
------------------|------------------|---------------------|



-------------------------------|-----------------------------|
-------------------------------|-----------------------------|
-------------------------------|-----------------------------|
--0-0-0-0-6--0-0----0-0-0-0-6--|--0-0----0-0-0-0-5/-7--5/-7--|
-----------------6-------------|------6----------------------|



-------------------------------|----------------------------|
-------------------------------|----------------------------|
-------------------------------|----------------------------|
--0-0-0-0-6--0-0----0-0-0-0-6--|--0-0----0-0-0-0-2---3---4--|
-----------------6-------------|------6---------------------|



---------------------|------------------|--------------------|
---------------------|------------------|--------------------|
---------------------|------------------|--------------------|
--------4---5---6----|------------------|--7------3----------|
---------------------|------------------|--------------------|



--------------------|--------------------|--------------------|
--------------------|--------------------|--------------------|
--------------------|--------------------|--------------------|
---------5----------|---------3----------|---------5----------|
--5-----------------|--3-----------------|--5-----------------|



--------------------|--------------------|--------------------|
--------------------|--------------------|--------------------|
--------------------|--------------------|--------------------|
--7------3----------|---------5----------|---------3----------|
--------------------|--5-----------------|--3-----------------|



----------------------|--------------------------|--------------------------|
----------------------|--------------------------|--------------------------|
----------------------|--------------------------|--------------------------|
--------------5--5----|-----------3--3--3--3--3--|-----------5--5--5--5--5--|
----5--5--------------|--0--0--0-----------------|--5--5--5-----------------|



--------------------------|--------------------------|
--------------------------|--------------------------|
--------------------------|--------------------------|
-----------3--3--3--3--3--|-----------5--5--5--5--5--|
--3--3--3-----------------|--5--5--5-----------------|



--------------------------|--------------------------|
--------------------------|--------------------------|
--------------------------|--------------------------|
-----------3--3--3--3--3--|-----------5--5--5--5--5--|
--0--0--0-----------------|--5--5--5-----------------|



--------------------------|----------------------|--------------------|
--------------------------|----------------------|--------------------|
--------------------------|----------------------|--------------------|
-----------3--3--3--3--3--|--------------5--5----|--7------3----------|
--3--3--3-----------------|----5--5--------------|--------------------|



--------------------|--------------------|--------------------|
--------------------|--------------------|--------------------|
--------------------|--------------------|--------------------|
---------5----------|---------3----------|---------5----------|
--5-----------------|--3-----------------|--5-----------------|



--------------------|--------------------|--------------------|
--------------------|--------------------|--------------------|
--------------------|--------------------|--------------------|
--7------3----------|---------5----------|---------3----------|
--------------------|--5-----------------|--3-----------------|



----------------------|--------------------------|--------------------------|
----------------------|--------------------------|--------------------------|
----------------------|--------------------------|--------------------------|
--------------5--5----|--------------------------|--8--8--8--8--8--8--8--8--|
----5--5--------------|--1--1--1--1--1--1--1--1--|--------------------------|



--------------------------|--------------------------|
--------------------------|--------------------------|
--------------------------|--------------------------|
--8--8--8--8--8--8--8--8--|--------------------------|
--------------------------|--9--9--9--9--9--9--9--9--|



--------------------------|--------------------------|
--------------------------|--------------------------|
--------------------------|--------------------------|
--------------------------|--9--9--9--9--9--9--9--9--|
--9--9--9--9--9--9--9--9--|--------------------------|



--------------------------|--------------------------|
--------------------------|--------------------------|
--------------------------|--------------------------|
--9--9--9--9--9--9--9--9--|--8--8--8--8--8--8--8--8--|
--------------------------|--------------------------|



--------------------------|--------------------------|
--------------------------|--------------------------|
--------------------------|--------------------------|
--7--7--7--7--7--7--7--7--|--8--8--8--8--8--8--8--8--|
--------------------------|--------------------------|



--------------------------|--------------------------|
--------------------------|--------------------------|
--------------------------|--------------------------|
--8--8--8--8--8--8--8--8--|--------------------------|
--------------------------|--9--9--9--9--9--9--9--9--|



--------------------------|--------------------------|
--------------------------|--------------------------|
--------------------------|--------------------------|
--------------------------|--9--9--9--9--9--9--9--9--|
--9--9--9--9--9--9--9--9--|--------------------------|



--------------------------|--------------------------|
--------------------------|--------------------------|
--------------------------|--------------------------|
--9--9--9--9--9--9--9--9--|--8--8--8--8--8--8--8--8--|
--------------------------|--------------------------|



--------------------------|--------------------------|
--------------------------|--------------------------|
--------------------------|--------------------------|
--7--7--7--7--7--7--7--7--|--8--8--8--8--8--8--8--8--|
--------------------------|--------------------------|



--------------------------|--------------------------|
--------------------------|--------------------------|
--------------------------|--------------------------|
--8--8--8--8--8--8--8--8--|--------------------------|
--------------------------|--9--9--9--9--9--9--9--9--|



--------------------------|--------------------------|
--------------------------|--------------------------|
--------------------------|--------------------------|
--------------------------|--9--9--9--9--9--9--9--9--|
--9--9--9--9--9--9--9--9--|--------------------------|



--------------------------|--------------------------|
--------------------------|--------------------------|
--------------------------|--------------------------|
            
Submit corrections

comments powered by Disqus
↑ Back to top | Arch Enemy Tabs for Burning Angel. Lyrics for acoustic guitar and electric guitar. Tablatures and chords are parodies/interpretations of the original songs. You may use it for private study, scholarship, research or language learning purposes only