» » »

Arch Enemy, Behind The Smile Tabs (ver.1)

Artists:  A B C D E F G H I J K L M N O P Q R S T U V W X Y Z # 

Behind The Smile Tabs (ver.1)

Arch Enemy Tabs
 Rating:
4/5 (6 votes)
Behind The Smile lessons Tabs too difficult? Try these video lessons and learn fast
                
BEHIND THE SMILE
As recorded by Arch Enemy
(From the 2001 Album WAGES OF SIN)

        

Words and Music by Arch Enemy

Gtr I (Bb Eb Ab Db F Bb) - 'Untitled'
Gtr II (Bb Eb Ab Db F Bb) - 'Untitled'
Gtr III (Bb Eb Ab Db F Bb) - 'Untitled'
Gtr IV (Bb Eb Ab Db F Bb) - 'Untitled'

 Intro
  Q=107
  N.C.
 2/4            4/4
  Gtr I
  Q.     +E      E S S S S S S S S S S S S E   S S S S S S S S S S S S Q
|------------||------------------------------|-------------------------------|
|------------||o-----------------------------|-------------------------------|
|------------||------------------------------|-------------------------------|
|------------||--------4---------------4-----|---------4---------------------|
|------------||o-----------------------------|-------------------------------|
|-3b5====(3)r||==2-2-2---2---2---2-2-2---2---|---2-2-2---2---2---2-2-2-3b5===|


                                                          F5
  +E  S S S S S S S S S S S S E   S S S S S S S S S S S S Q
|-------------------------------|-----------------------------||
|-------------------------------|----------------------------o||
|-------------------------------|-----------------------------||
|---------4---------------4-----|---------4-------------------||
|-------------------------------|-------------------------3--o||
|-(3)r2-2---2---2---2-2-2---2---|---2-2-2---2---2---2-2-2-1---||


   Verse
    $
    N.C.
    PM----|   PM----------|   PM------------|   PM----------|
    S S S S S S S S S S S S S S S S   S S S S S S S S S S S S Q
||----------------------------------|-------------------------------|
||o---------------------------------|-------------------------------|
||----------------------------------|-------------------------------|
||----------4---------------4-------|---------4---------------------|
||o---------------------------------|-------------------------------|
||--2-2-2-2---2-2-2-2-2-2-2---2-2-2-|-2-2-2-2---2-2-2-2-2-2-2-3b5===|


                                                            F5
      PM|   PM----------|   PM------------|   PM----------|
  +E  S S S S S S S S S S S S S S   S S S S S S S S S S S S Q
|---------------------------------|------------------------------||
|---------------------------------|-----------------------------o||
|---------------------------------|------------------------------||
|---------4---------------4-------|---------4--------------------||
|---------------------------------|-------------------------3---o||
|-(3)r2-2---2-2-2-2-2-2-2---2-2-2-|-2-2-2-2---2-2-2-2-2-2-2-1----||


   Chorus
                                   D.S.
    Bm         Bsus2      F#/A#      Bm
    Gtr I
    W          W          W          W
||-----------|----------|----------|--------||
||o----------|----------|----------|-------o||
||--7--------|-6--------|-6--------|-7------||
||-----------|----------|----------|--------||
||o-5--------|-4--------|-4--------|-5-----o||
||-----------|----------|----------|--------||
|
|   Gtr II
|   W          W          W          W
||-----------|----------|----------|--------||
||o----------|----------|----------|-------o||
||-----------|----------|----------|--------||
||--9--------|-9--------|-8--------|-9------||
||o----------|----------|----------|-------o||
||--7--------|-7--------|-6--------|-7------||


 Bridge
  E5              F5     G#5      E5              F5     N.C.
  Gtrs I, II
  Q  E E Q  E E   Q  E E Q  E E   Q  E E Q  E E   Q  E E E E E E
|---------------|---------------|---------------|-----------------|
|---------------|---------------|---------------|-----------------|
|---------------|---------------|---------------|------------7----|
|---------------|---------------|---------------|-----------------|
|-2----2-2----2-|-3----3-6----6-|-2----2-2----2-|-3----3---6---6--|
|-0----0-0----0-|-1----1-4----4-|-0----0-0----0-|-1----1-4--------|


  E5              F5     G#5      E5              F5      N.C.
  Gtr III
  W               W               W               H.          E  E
|---------------|---------------|---------------|---------------20-|
|---------------|---------------|---------------|------------------|
|---------------|---------------|---------------|------------------|
|---------------|---------------|---------------|------------------|
|---------------|---------------|---------------|------------------|
|---------------|---------------|---------------|------------------|
|
| Gtrs I, II
| Q  E E Q  E E   Q  E E Q  E E   Q  E E Q  E E   Q   E E E E E  E
|---------------|---------------|---------------|------------------|
|---------------|---------------|---------------|------------------|
|---------------|---------------|---------------|-------------7----|
|---------------|---------------|---------------|------------------|
|-2----2-2----2-|-3----3-6----6-|-2----2-2----2-|-3-----3---6----6-|
|-0----0-0----0-|-1----1-4----4-|-0----0-0----0-|-1-----1-4--------|


 Harmony/Solo
  A5                         D5
  Gtr III
   E   E  E  E  E  E  E  E    E  E  E  E  Q.    E
|-20--19-19-17-17----------|-------------------19-|
|-----------------20-20-19-|-19-17-17-------------|
|--------------------------|----------19-19-------|
|--------------------------|----------------------|
|--------------------------|----------------------|
|--------------------------|----------------------|
|
| Gtr IV
|  Q.        E  E  E  E  E    E  E  E  E  Q.    E
|-----------20-20-19-19-17-|-17-------------------|
|--------------------------|----20-20-19-19-------|
|--------------------------|----------------------|
|--------------------------|----------------------|
|--------------------------|----------------------|
|--------------------------|----------------------|
|
| Gtrs I, II
|  W                          W
|--------------------------|----------------------|
|--------------------------|----------------------|
|--------------------------|----------------------|
|--------------------------|--7-------------------|
|--7-----------------------|--5-------------------|
|--5-----------------------|----------------------|


  G5                         C5
   E   E  E  E  E  E  E  E    E  E  E  E  Q.    E
|-19--17-17----------------|-------------------17-|
|-----------20-20-19-19-17-|-17-------------------|
|--------------------------|----19-19-17-17-------|
|--------------------------|----------------------|
|--------------------------|----------------------|
|--------------------------|----------------------|
|
|  Q.        E  E  E  E  E    E  E  E  E  Q.    E
|-----------19-19-17-17----|----------------------|
|-----------------------20-|-20-19-19-17-17-------|
|--------------------------|----------------------|
|--------------------------|----------------------|
|--------------------------|----------------------|
|--------------------------|----------------------|
|
|  W                          W
|--------------------------|----------------------|
|--------------------------|----------------------|
|--------------------------|----------------------|
|--------------------------|--5-------------------|
|--5-----------------------|--3-------------------|
|--3-----------------------|----------------------|


  F5                         B5
   E   E  E  E  E  E  E  E    E  E  E  E  H
|-17--15-15----------------|-------------------|
|-----------18-18-17-17-16-|-16----------------|
|--------------------------|----17-17-16-16----|
|--------------------------|-------------------|
|--------------------------|-------------------|
|--------------------------|-------------------|
|
|  Q.        E  E  E  E  E    E  E  E  E  H
|-----------17-17-15-15----|-------------------|
|-----------------------19-|-19-17-17-16-16----|
|--------------------------|-------------------|
|--------------------------|-------------------|
|--------------------------|-------------------|
|--------------------------|-------------------|
|
|  W                          W
|--------------------------|-------------------|
|--------------------------|-------------------|
|--------------------------|-------------------|
|--------------------------|--4----------------|
|--3-----------------------|--2----------------|
|--1-----------------------|-------------------|


  E5    F#5             G5                E/G#
                            |--3--|
   H     +E   E  E  E    E  S  S  S  E  E  H
|---------------------|-------------------------|
|---------------------|-------------------------|
|-12----(12)----12-14-|-16-14-16-14-12----13----|
|------------14-------|----------------16-------|
|---------------------|-------------------------|
|---------------------|-------------------------|
|
|                           |--3--|
|  H     +E   E  E  E    E  S  S  S  E  E  H
|---------------------|-------------------------|
|---------------------|-------------------------|
|------------------11-|-12-11-12-11-------------|
|-14----(14)----14----|-------------14-12-14----|
|------------14-------|-------------------------|
|---------------------|-------------------------|
|
|  H      H              H                 H
|---------------------|-------------------------|
|---------------------|-------------------------|
|---------------------|-------------------------|
|---------------------|--------------------6----|
|--2------4-----------|--5----------------------|
|--0------2-----------|--3-----------------4----|


  A5                       D5                  G5
  Gtr III
                                                             |--3--|
   H.         E     S  S    H     E  E  E  E    +Q.    E  E  S  S  S  E  E
|------------------------|-------12-14-15----|-----------------------------|
|-15b17------15b17-15-12-|-15-------------12-|-(12)---12-13-12-13-12-------|
|------------------------|-------------------|-----------------------14-12-|
|------------------------|-------------------|-----------------------------|
|------------------------|-------------------|-----------------------------|
|------------------------|-------------------|-----------------------------|
|
| Gtrs I, II
|  W                        W                    W
|------------------------|-------------------|-----------------------------|
|------------------------|-------------------|-----------------------------|
|------------------------|-------------------|-----------------------------|
|------------------------|--7----------------|-----------------------------|
|--7---------------------|--5----------------|---5-------------------------|
|--5---------------------|-------------------|---3-------------------------|


  C5                       F5
   E  E  S  S  E  +H       E  Q      E     Q      E     S  S
|------------------------|---15b17--15b17-15b17--15b17-15-12-|
|------------------------|-----------------------------------|
|-14-16-16-14-12-(12)----|-----------------------------------|
|------------------------|-----------------------------------|
|------------------------|-----------------------------------|
|------------------------|-----------------------------------|
|
|  W                       W
|------------------------|-----------------------------------|
|------------------------|-----------------------------------|
|------------------------|-----------------------------------|
|--5---------------------|-----------------------------------|
|--3---------------------|-3---------------------------------|
|------------------------|-1---------------------------------|


  B5
   Q      +Q        +E       S  S  Q
|---------------------------------14--|
|-15b17--(15)pb17--(15)pb17-16-17-----|
|-------------------------------------|
|-------------------------------------|
|-------------------------------------|
|-------------------------------------|
|
|  W
|-------------------------------------|
|-------------------------------------|
|-------------------------------------|
|--4----------------------------------|
|--2----------------------------------|
|-------------------------------------|


  E5                                     F#5
   |------6-------|  |--------6--------|  |------6-------|
   S  S  S  S  S  S  S  S  S  S  S  T  T  S  S  S  S  S  S  Q
|-19p15----------------------------15s19-24-19-----------------|
|-------17----------------------17-------------20--------------|
|----------16----------------16-------------------21-----------|
|-------------17----------17-------------------------21--------|
|----------------19-14h19-------------------------------22-19--|
|--------------------------------------------------------------|
|
|  H                                      H
|--------------------------------------------------------------|
|--------------------------------------------------------------|
|--------------------------------------------------------------|
|--------------------------------------------------------------|
|--2--------------------------------------4--------------------|
|--0--------------------------------------2--------------------|


  G5                                  N.C.  (E/G#)
   |------6-------|  |------6-------|  |------6-------|  |------6-------|
   S  S  S  S  S  S  S  S  S  S  S  S  S  S  S  S  S  S  S  S  S  S  S  S
|-------------------------------------------------------------------12-15--|
|-------------------------------------------------12-15-------12-15--------|
|-------------------------------12-14-------12-14-------12-14--------------|
|-------------12-14-------12-14-------12-14--------------------------------|
|-------12-14-------12-14--------------------------------------------------|
|-12-15--------------------------------------------------------------------|
|
|  H                                   H
|--------------------------------------------------------------------------|
|--------------------------------------------------------------------------|
|--------------------------------------------------------------------------|
|--------------------------------------6-----------------------------------|
|--5-----------------------------------------------------------------------|
|--3-----------------------------------4-----------------------------------|


 Chorus
  Bm                      Bsus2      F#/A#      Bm
  Gtr III
   E.  +S      +H.        W          W          W
|-19--(19)b21-(19)------|----------|----------|------|
|-----------------------|----------|----------|------|
|-----------------------|----------|----------|------|
|-----------------------|----------|----------|------|
|-----------------------|----------|----------|------|
|-----------------------|----------|----------|------|
|
| Gtr I
|  W                      W          W          W
|-----------------------|----------|----------|------|
|-----------------------|----------|----------|------|
|--7--------------------|-6--------|-6--------|-7----|
|-----------------------|----------|----------|------|
|--5--------------------|-4--------|-4--------|-5----|
|-----------------------|----------|----------|------|
|
| Gtr II
|  W                      W          W          W
|-----------------------|----------|----------|------|
|-----------------------|----------|----------|------|
|-----------------------|----------|----------|------|
|--9--------------------|-9--------|-8--------|-9----|
|-----------------------|----------|----------|------|
|--7--------------------|-7--------|-6--------|-7----|


  Bm         Bsus2      F#/A#      Bm
  W          W          W          W
|----------|----------|----------|------|
|----------|----------|----------|------|
|-7--------|-6--------|-6--------|-7----|
|----------|----------|----------|------|
|-5--------|-4--------|-4--------|-5----|
|----------|----------|----------|------|
|
| W          W          W          W
|----------|----------|----------|------|
|----------|----------|----------|------|
|----------|----------|----------|------|
|-9--------|-9--------|-8--------|-9----|
|----------|----------|----------|------|
|-7--------|-7--------|-6--------|-7----|


 Out Chorus
  Bm          Bsus2       F#/A#       Bm
  H    H      H    H      H    H      H    H
|-----------|-----------|-----------|-----------|
|-----------|-----------|-----------|-----------|
|-7----7----|-6----6----|-6----6----|-7----7----|
|-----------|-----------|-----------|-----------|
|-5----5----|-4----4----|-4----4----|-5----5----|
|-----------|-----------|-----------|-----------|
|
| H    H      H    H      H    H      H    H
|-----------|-----------|-----------|-----------|
|-----------|-----------|-----------|-----------|
|-----------|-----------|-----------|-----------|
|-9----9----|-9----9----|-8----8----|-9----9----|
|-----------|-----------|-----------|-----------|
|-7----7----|-7----7----|-6----6----|-7----7----|


                                      Q=52
  Bm          Bsus2       F#/A#       Bsus2
  H    H      H    H      H    H      W
|-----------|-----------|-----------|------*|
|-----------|-----------|-----------|------*|
|-7----7----|-6----6----|-6----6----|-7----*|
|-----------|-----------|-----------|------*|
|-5----5----|-4----4----|-4----4----|-5----*|
|-----------|-----------|-----------|------*|
|
| H    H      H    H      H    H      W
|-----------|-----------|-----------|------*|
|-----------|-----------|-----------|------*|
|-----------|-----------|-----------|------*|
|-9----9----|-9----9----|-8----8----|-9----*|
|-----------|-----------|-----------|------*|
|-7----7----|-7----7----|-6----6----|-7----*|



Duration Legend
---------------
W - whole; H - half; Q - quarter; E - 8th; S - 16th; T - 32nd; X - 64th; a - acciaccatura
+ - note tied to previous; . - note dotted; .. - note double dotted
Uncapitalized letters represent notes that are staccato (1/2 duration)
Irregular groupings are notated above the duration line
Duration letters will always appear directly above the note/fret number it represents the
duration for.  Duration letters with no fret number below them represent rests.  Multi-
bar rests are notated in the form Wxn, where n is the number of bars to rest for.  Low
melody durations appear below the staff

Tablature Legend
----------------
 h   - hammer-on
 p   - pull-off
 b   - bend
 pb  - pre-bend
 r   - bend release (if no number after the r, then release immediately)
 /\  - slide into or out of (from/to "nowhere")
 s   - legato slide
 S   - shift slide
 - natural harmonic
[n]  - artificial harmonic
n(n) - tapped harmonic
 ~   - vibrato
 tr  - trill
 T   - tap
 TP  - trem. picking
 PM  - palm muting
\n/  - tremolo bar dip; n = amount to dip
 \n  - tremolo bar down
 n/  - tremolo bar up
/n\  - tremolo bar inverted dip
 =   - hold bend; also acts as connecting device for hammers/pulls
 <> - volume swell (louder/softer)
 x   - on rhythm slash represents muted slash
 o   - on rhythm slash represents single note slash

Misc Legend
-----------
 |  - bar
||  - double bar
||o - repeat start
o|| - repeat end
*|  - double bar (ending)
 :  - bar (freetime)
 $  - Segno
 &  - Coda
Tempo markers -  = BPM(8/16=s8/s16), where s8 = swing 8ths, s16 = swing 16ths
            
Submit corrections

comments powered by Disqus
↑ Back to top | Arch Enemy Tabs for Behind The Smile. Lyrics for acoustic guitar and electric guitar. Tablatures and chords are parodies/interpretations of the original songs. You may use it for private study, scholarship, research or language learning purposes only