» » »

A Perfect Circle, Lullaby Tabs (ver.1)

Artists:  A B C D E F G H I J K L M N O P Q R S T U V W X Y Z # 

Lullaby Tabs (ver.1)

A Perfect Circle Tabs
 Rating:
4/5 (4 votes)
Lullaby lessons Tabs too difficult? Try these video lessons and learn fast
1
                Intro/Chorus:
Eb----------------------------------------------------------------|
Bb----------------------------------------------------------------|
Gb----------------------------------------------------------------|
Db--2-2---0h2ý2/3\2--0-0-0----------------------------------------|
Ab--2-2---0h2ý2/3\2--0-0-0----------------------------------------|
Db--2-2---0h2ý2/3\2--0-0-0----------------------------------------|

                                                                                  Play 2X
Eb----------------------------------------------------------|
Bb----------------------------------------------------------|
Gb---------------------------/12-12-12-12-12-12-12-12-------|
Db-2-2---0h2---2/3\2--0-0-0---------------------------------|
Ab-2-2---0h2---2/3\2--0-0-0--/10-10-10-10-10-10-10-10-------|
Db-2-2---0h2---2/3\2--0-0-0---------------------------------|

Eb---------------------------------------------------------|
Bb---------------------------------------------------------|
Gb---------------------------------------------------------|
Db--2-2---0h2----2/3\2--0-0-0ý5\\-x-5\\-x-5\\--------------|
Ab--2-2---0h2----2/3\2--0-0-0ý5\\-x-5\\-x-5\\--------------|
Db--2-2---0h2----2/3\2--0-0-0ý5\\-x-5\\-x-5\\--------------|

Verse:
Eb----------------------------------------------------------------|
Bb----------------------------------------------------------------|
Gb----------------------------------------------------------------|
Db-----2-3-2------2-3-2----------2-3-2------2-3-2-----------------|
Ab---2--------------------------2-------------------------2-------|
Db-2-------------2---------0--2------------2---------0--2---------|

Eb----------------------------------------------------------------|
Bb----------------------------------------------------------------|
Gb----------------------------------------------------------------|
Db-----2-3-2---2-3-2--------5------------7---2----4---------------|
Ab---2---------------------5------------7----2--------------------|
Db-2----------2--------0--5--------5--7------2--------------------|


Repeat Intro/Chorus Riff Except 4th time through play this:
Eb----------------------------------------------------------|
Bb----------------------------------------------------------|
Gb---------------------------10-9--14-10--9--9--------------|
Db--2-2ý0h2---2/3\2---0-0-0---------------------------------|
Ab--2-2ý0h2---2/3\2---0-0-0--8--7--12--8--7--7--------------|
Db--2-2ý0h2ý--2/3\2---0-0-0---------------------------------|


Eb-----------------------------------------------------------|
Bb-----------------------------------------------------------|
Gb--7---------------9------7/10----9----7----9---------------|
Db----------7-------9------7/10----9-------------------------|
Ab--5-------7-------7------5/-8----7----5----7---------------|
Db----------7------------------------------------------------|

Eb------------------------------------|
Bb------------------------------------|
Gb--16--16--14---16---12--------------|
Db------------------------------------|
Ab--14--14--12---14---10--------------|
Db------------------------------------|

Eb-------------------------------------------------------|
Bb-------------------------------------------------------|
Gb-16---16--14--16--9--9--10--9------9--9-10---9---10----|
Db------------------9--9--10--9------9--9-10---9---10----|
Ab-14---14--12--14--7--7--8---7------7--7--8---7---8-----|
Db-------------------------------------------------------|

Play Intro/Chorus Riff:

Eb-----------------------------------------------------------------|
Bb-----------------------------------------------------------------|
Gb----12---11---9----9/12--11--9---9/12--11---12--11---------------|
Db--------------------------------------------------------7---9----|
Ab----10---9----7----7/10---9---7---7/10--9---10---9---------------|
Db--------------------------------------------------------7---9----|

Eb--------------------------------------------------------------|
Bb--------------------------------------------------------------|
Gbý4/9---11--12--14---16----------------------------------------|
Db--------------------------------------------------------------|
Abý2/7---9---10--12---14----------------------------------------|
Db--------------------------------------------------------------|

With Wah: Repeat 3X
Eb----------------------------------------------------------|
Bb----------------------------------------------------------|
Gb-12-12-12-12-12-//12-12-12-12-12-//12-12-12--11--9--------|
Db----------------------------------------------------------|
Ab-10-10-10-10-10-//10-10-10-10-10-//10-10-10--9---7--------|
Db----------------------------------------------------------|

With Wah
Eb-------------------------------------------------------------------------|
Bb-------------------------------------------------------------------------|
Gb-11-11-11--11-11-//11/12--12-12-12---14-14-14-14-14-14-16-16-16-16-16----|
Db-------------------------------------------------------------------------|
Ab-9--9---9---9--9-//9-/10--10-10-10---12-12-12-12-12-12-14-14-14-14-14----|
Db-------------------------------------------------------------------------|

Solo
Eb----------------------------------------------------------------|
Bb----------------------------------------------------------------|
Gb--16---14----13---14ý-16--14---16-19-18-16---14-13-14-13--------|
Db----------------------------------------------------------------|
Ab--14---12----11---12--14--12---14-17-16-14---12-11-12-11--------|
Db----------------------------------------------------------------|

Eb--------------------------------------------------------------------------|
Bb--------------------------------------------------------------------------|
Gb-7/9-9--9-12\9-9--9-7/9-9--9-7/9-14\13-7/9-7/9-9--9-12\9-913-13/14--16-16-|
Db--------------------------------------------------------------------------|
Ab-5/7-7--7-10\7-7--7-5/7-7--7-5/7-12\11-5/7-5/7-7--7-10\7-711-11/12--14-14-|
Db--------------------------------------------------------------------------|


Eb-------------------------------------------------|
Bb-------------------------------------------------|
Gb-------------------------------------------------|
Db-2-0--0-0--5--0--0-0--2--0--0-0--5--0--0-0-------|
Ab-2-0--0-0--5--0--0-0--2--0--0-0--5--0--0-0-------|
Db-2-0--0-0--5--0--0-0--2--0--0-0--5--0--0-0-------|
            
Submit corrections

comments powered by Disqus
↑ Back to top | A Perfect Circle Tabs for Lullaby. Lyrics for acoustic guitar and electric guitar. 1 Tablatures and chords are parodies/interpretations of the original songs. You may use it for private study, scholarship, research or language learning purposes only