» » »

Stolen Tabs (ver.1)

Artists:  A B C D E F G H I J K L M N O P Q R S T U V W X Y Z # 

Stolen Tabs (ver.1)

Anthony Green
Rating:
0/5 (0 votes)

Tabs too difficult? Try these video lessons and learn fast.
                -------------------------------------------------------------------------------
-------------------------------------------------------------------------------

Tuning: E-A-D-G-B-e (capo on 3rd fret)

"Circa Vision - Acoustic II"


e|----------0--0--------------------------------------------------------------|
B|----0-----0--0--------------------------------------------------------------|
G|----4-----9--8--------------------------------------------------------------|
D|----4-----9--9--------------------------------------------------------------|
A|----2-----7--7--------------------------------------------------------------|
E|----2-----0--0--------------------------------------------------------------|
            
Tabs too difficult? Try these video lessons and learn fast.




comments powered by Disqus
↑ Back to top | Tablatures and chords are parodies/interpretations of the original songs. You may use it for private study, scholarship, research or language learning purposes only