» » »

Anthony Green, Miracle Sun Tabs (ver.2)

Artists:  A B C D E F G H I J K L M N O P Q R S T U V W X Y Z # 

Miracle Sun Tabs (ver.2)

Anthony Green Tabs
 Rating:
4/5 (4 votes)
Miracle Sun lessons Tabs too difficult? Try these video lessons and learn fast
                Verse: "where do you go when it gets dark...."


e----------10------------10------------5-------------------------|
B----------12------------12------------7-------------------------|
G----------0-------------0-------------0-------------------------|
D----------12------------11------------7-------------------------|
A----------0-------------0-------------0-------------------------|
E----------0-------------0-------------0-------------------------|

"I'll sleep all day...."          "......miracle sun...."

e-----------3------------------------------0----0----------------|
B-----------5------------------------------3----2----------------|
G-----------0------------------------------0----0----------------|
D-----------5------------------------------2----2----------------|
A-----------0------------------------------0----0----------------|
E-----------0------------------------------0----0----------------|

"stay with me tonight"

e-------5--------------------------------------------------------|
B-------7--------------------------------------------------------|
G-------0--------------------------------------------------------|
D-------7--------------------------------------------------------|
A-------0--------------------------------------------------------|
E-------0--------------------------------------------------------|


and repeat
            
Submit corrections

comments powered by Disqus
↑ Back to top | Anthony Green Tabs for Miracle Sun. Lyrics for acoustic guitar and electric guitar. Tablatures and chords are parodies/interpretations of the original songs. You may use it for private study, scholarship, research or language learning purposes only