» » »

Eternity Tabs (ver.3)

Artists:  A B C D E F G H I J K L M N O P Q R S T U V W X Y Z # 

Eternity Tabs (ver.3)

Anathema
Rating:
0/5 (0 votes)

Hard to play? Try these video lessons and learn fast.
                "(Part3)
Anathema - "Eternity pt.III"  

Riff A - 
E|------------------------------------------
B|------------------------------------------
G|------------------------------------------
D|-------0----0--------0---0-------0-----0--
A|-----4----4-----4------4------4------4----
E|---7----7-----7----7--7-----3---3--3------

bass fill

E|--14--12--10
(slide)

Fill 1
D|--4---
A|--4---
E|--2---
       So little time...
(This fill is played in the beginning of verses)

Riff A is played by guitar 1 until Riff B



Riff B
E|-----------------------------------------------------------
B|-----------------------------------------------------------
G|-4-4-4-4-4-4-----------------------------------------------
D|-4-4-4-4-4-4-5--5-5-5-5-5-5-5--7-7-7-7-7-7--9--9-9-9-9-9-9-
A|-2-2-2-2-2-2-5--5-5-5-5-5-5-5--7-7-7-7-7-7--9--9-9-9-9-9-9-
E|-------------3--3-3-3-3-3-3-3--5-5-5-5-5-5--7--7-7-7-7-7-7-
 
   ..I won`t reproach myself today...

(Riff B is played during chorus)

There is RIFF C after last chorus but it is much like Riff A
(I`ll try to tab it soon)


Any comments?
"            
Hard to play? Try these video lessons and learn fast. | Correct




comments powered by Disqus
↑ Back to top | Tablatures and chords are parodies/interpretations of the original songs. You may use it for private study, scholarship, research or language learning purposes only