>
 >
Eternity

Eternity Bass Tabs

Anathema - Eternity chords, tabs, tablatures, lyrics

Guitar lessons | Add/correct | Request | Top 50 tabs Artists:  A B C D E F G H I J K L M N O P Q R S T U V W X Y Z 0-9

Eternity Bass Tabs – Anathema

CD, Sheet music, Poster

Do you like Eternity? Share with your friends now
Bass TabsBass Tabs v2
G||------------------|------------------|------------------|------------------|
D||------------------|------------------|------------------|------------------|
A||------------------|------------------|------------------|------------------|
E||------------------|------------------|------------------|------------------|


                                                                          
-------------------|--------------------------|--------------------------|
-------------------|--------------------------|--------------------------|
-------------------|--------------------------|--------------------------|
----------------0/-|--5--5--5--5--5--5--5/-1--|--1--1--1--1--1--1--1--1--|


                                                      
--------------------------|--------------------------|
--------------------------|--------------------------|
--------------------------|--------------------------|
--0--0--0--0--0--0--0--1--|--1--1--1--1--1--1--1--1/-|


                                                      
--------------------------|--------------------------|
--------------------------|--------------------------|
--------------------------|--------------------------|
--5--5--5--5--5--5--5/-1--|--1--1--1--1--1--1--1--1--|


                                                      
--------------------------|--------------------------|
--------------------------|--------------------------|
--------------------------|--------------------------|
--0--0--0--0--0--0--0--1--|--1--1--1--1--1--1--1--1/-|


                                                      
--------------------------|--------------------------|
--------------------------|--------------------------|
--------------------------|--------------------------|
--5--5--5--5--5--5--5/-1--|--1--1--1--1--1--1--1--1--|


                                                                              
--------------------------|--------------------------|-----------------------|
--------------------------|--------------------------|--------------------0--|
--------------------------|--------------------------|--0----0--2----3-------|
--0--0--0--0--0--0--0--1--|--1--1--1--1--1--1--1--1/-|-----------------------|


                                                                    
-----------------------|-----------------------|-------------------|
-----------------------|-----------------------|-------------------|
-----------------------|----------3----2----0--|-------------------|
--1----1--1----1--1----|--1/-0-----------------|--1----------------|


                                                                           
-----------------------|--------------------------|-----------------------|
--------------------0--|--3--3--3--3--3--3--3--3--|-----------------------|
--0----0--2----3-------|--------------------------|-----------------------|
-----------------------|--------------------------|--1--0----0----0--0----|


                                                                      
---------------------|-----------------------|-----------------------|
---------------------|--------------------0--|-----------------------|
---------------------|--0----0--2----3-------|-----------------------|
--1--0----0----------|-----------------------|--1----1--1----1--1----|


                                                                    
-----------------------|-------------------|-----------------------|
-----------------------|-------------------|--------------------0--|
----------3----2----0--|-------------------|--0----0--2----3-------|
--1/-0-----------------|--1----------------|-----------------------|


                                                                              
--------------------------|-----------------------|--------------------------|
--3--3--3--3--3--3--3--3--|-----------------------|--3--3--3--3--3--3--3--3--|
--------------------------|-----------------------|--------------------------|
--------------------------|--1--0----0----0--0----|--------------------------|


                                                        
---------------------------|---------------------------|
---------------------------|--0----0----0----0----0----|
--0----0----0----0----0----|---------------------------|
---------------------------|---------------------------|


                                                        
---------------------------|---------------------------|
---------------------------|--0----0----0----0----0----|
--0----0----0----0----0----|---------------------------|
---------------------------|---------------------------|


                                                        
---------------------------|---------------------------|
---------------------------|--3----3----3----3----3----|
--0----0----0----0----0----|---------------------------|
---------------------------|---------------------------|


                                                        
---------------------------|---------------------------|
--2----2----2----2----2----|--0----0----0----0----0----|
---------------------------|---------------------------|
---------------------------|---------------------------|


                                                        
---------------------------|---------------------------|
---------------------------|--0----0----0----0----0----|
--0----0----0----0----0----|---------------------------|
---------------------------|---------------------------|


                                                        
---------------------------|---------------------------|
---------------------------|--0----0----0----0----0----|
--0----0----0----0----0----|---------------------------|
---------------------------|---------------------------|


                                                        
---------------------------|---------------------------|
---------------------------|--3----3----3----3----3----|
--0----0----0----0----0----|---------------------------|
---------------------------|---------------------------|


                                                        
---------------------------|---------------------------|
--2----2----2----2----2----|--0----0----0----0----0----|
---------------------------|---------------------------|
---------------------------|---------------------------|


                                                           
-----------------------------|----------------------------|
-----------------------------|--0----0--0----0----0----0--|
--0------0----0-----0--0--0--|----------------------------|
-----------------3-----------|----------------------------|


                                                           
-----------------------------|----------------------------|
-----------------------------|--0----0--0----0----0----0/-|
--0------0----0-----0--0--0--|----------------------------|
-----------------3-----------|----------------------------|


                                                         
--9------7----5----4----2--|----------------------------|
---------------------------|--3----3--3----3----3----3--|
---------------------------|----------------------------|
---------------------------|----------------------------|


                                                         
---------4----5----4----2--|----------------------------|
--2------------------------|--0----0--0----0----0----0--|
---------------------------|----------------------------|
---------------------------|----------------------------|


                                                           
-----------------------------|----------------------------|
-----------------------------|--0----0--0----0----0----0--|
--0------0----0-----0--0--0--|----------------------------|
-----------------3-----------|----------------------------|


                                                           
-----------------------------|----------------------------|
-----------------------------|--0----0--0----0----0----0/-|
--0------0----0-----0--0--0--|----------------------------|
-----------------3-----------|----------------------------|


                                                         
--9------7----5----4----2--|----------------------------|
---------------------------|--3----3--3----3----3----3--|
---------------------------|----------------------------|
---------------------------|----------------------------|


                                                         
---------4----5----4----2--|----------------------------|
--2------------------------|--0----0--0----0----0----0--|
---------------------------|----------------------------|
---------------------------|----------------------------|


                                                        
---------------------------|---------------------------|
---------------------------|--0----0----0----0----0----|
--0----0----0----0----0----|---------------------------|
---------------------------|---------------------------|


                                                        
---------------------------|---------------------------|
---------------------------|--0----0----0----0----0----|
--0----0----0----0----0----|---------------------------|
---------------------------|---------------------------|


                                                        
---------------------------|---------------------------|
---------------------------|--3----3----3----3----3----|
--0----0----0----0----0----|---------------------------|
---------------------------|---------------------------|


                                                        
---------------------------|---------------------------|
--2----2----2----2----2----|--0----0----0----0----0----|
---------------------------|---------------------------|
---------------------------|---------------------------|


                                                        
---------------------------|---------------------------|
---------------------------|--0----0----0----0----0----|
--0----0----0----0----0----|---------------------------|
---------------------------|---------------------------|


                                                        
---------------------------|---------------------------|
---------------------------|--0----0----0----0----0----|
--0----0----0----0----0----|---------------------------|
---------------------------|---------------------------|


                                                        
---------------------------|---------------------------|
---------------------------|--3----3----3----3----3----|
--0----0----0----0----0----|---------------------------|
---------------------------|---------------------------|


                                                        
---------------------------|---------------------------|
--2----2----2----2----2----|--0----0----0----0----0----|
---------------------------|---------------------------|
---------------------------|---------------------------|


                                                        
---------------------------|---------------------------|
---------------------------|--3------3----3----3----3--|
---------------------------|---------------------------|
--0------0----0----0----0--|---------------------------|


                                                         
---------------------------|----------------------------|
---------------------------|--3--3--3----3------0----0--|
---------------------------|----------------------------|
--0------0----0----0----0/-|----------------------------|


                                                        
---------------------------|---------------------------|
---------------------------|--3------3----3----0----0--|
---------------------------|---------------------------|
--0------0----0----0----0--|---------------------------|


                                                        
---------------------------|------------------------5--|
---------------------------|--3----3/---5/---7---------|
---------------------------|---------------------------|
--0------0----0----0----0--|---------------------------|


                                                          
-----------------------------|---------------------------|
-----------------------------|--0------0----0----0----0--|
--0------0----0-----0--0--0--|---------------------------|
-----------------3-----------|---------------------------|


                                                          
-----------------------------|---------------------------|
-----------------------------|--0------0----0----0----0/-|
--0------0----0-----0--0--0--|---------------------------|
-----------------3-----------|---------------------------|


                                                         
--9------7----5----4----2--|----------------------------|
---------------------------|--3----3--3----3----3----3--|
---------------------------|----------------------------|
---------------------------|----------------------------|


                                                         
---------4----5----4----2--|----------------------------|
--2------------------------|--0----0--0----0----0----0--|
---------------------------|----------------------------|
---------------------------|----------------------------|


                                                           
-----------------------------|----------------------------|
-----------------------------|--0----0--0----0----0----0--|
--0------0----0-----0--0--0--|----------------------------|
-----------------3-----------|----------------------------|


                                                           
-----------------------------|----------------------------|
-----------------------------|--0----0--0----0----0----0/-|
--0------0----0-----0--0--0--|----------------------------|
-----------------3-----------|----------------------------|


                                                         
--9------7----5----4----2--|----------------------------|
---------------------------|--3----3--3----3----3----3--|
---------------------------|----------------------------|
---------------------------|----------------------------|


                                                         
---------4----5----4----2--|----------------------------|
--2------------------------|--0----0--0----0----0----2--|
---------------------------|----------------------------|
---------------------------|----------------------------|


                                                                       
-----------2-----------|--0--0--0--4----0------|--2/-----7----4----5--|
--3--3--3-------3------|-----------------------|----------------------|
-----------------------|-----------------------|----------------------|
-----------------------|-----------------------|----------------------|


                                                                     
----4----2----------|-----------2-----------|--0--0--0--4----0------|
--------------------|--3--3--3-------3------|-----------------------|
--------------------|-----------------------|-----------------------|
--------------------|-----------------------|-----------------------|


                                                                    
--2/-----7----4----5--|----4----2----------|-----------2-----------|
----------------------|--------------------|--3--3--3-------3------|
----------------------|--------------------|-----------------------|
----------------------|--------------------|-----------------------|


                                                                    
--0--0--0--4----0------|--2/-----7----4----5--|----4----2/---------|
-----------------------|----------------------|--------------------|
-----------------------|----------------------|--------------------|
-----------------------|----------------------|--------------------|


                                                                      
--9------7----5----4--|----2----0----2--4--0--|--2/-----7----4----5--|
----------------------|-----------------------|----------------------|
----------------------|-----------------------|----------------------|
----------------------|-----------------------|----------------------|


                                                                     
----4----2----------|-----------------------|-----------------------|
--------------------|-----------------------|-----------------------|
--------------------|-----------0-----------|-----------2-----------|
--------------------|--1--1--1-------1------|--3--3--3-------3------|


                                                      
----------------------|------------------------------|
----------------------|------------------------------|
----------------------|------------------------------|
--5------------5/-13--|--13----13--13----13--13/-12--|


                                                             
------------------------------|-----------------------------|
------------------------------|-----------------------------|
------------------------------|-----------------------------|
--12----12--12----12--12/-13--|--13----13--13----13--13/-5--|


                                                         
-------------------------|------------------------------|
-------------------------|------------------------------|
-------------------------|------------------------------|
--5----5--5----5--5/-13--|--13----13--13----13--13/-12--|


                                                             
------------------------------|-----------------------------|
------------------------------|-----------------------------|
------------------------------|-----------------------------|
--12----12--12----12--12/-13--|--13----13--13----13--13/-5--|


                                                         
-------------------------|------------------------------|
-------------------------|------------------------------|
-------------------------|------------------------------|
--5----5--5----5--5/-13--|--13----13--13----13--13/-12--|


                                                             
------------------------------|-----------------------------|
------------------------------|-----------------------------|
------------------------------|-----------------------------|
--12----12--12----12--12/-13--|--13----13--13----13--13/-5--|


                                                         
-------------------------|------------------------------|
-------------------------|------------------------------|
-------------------------|------------------------------|
--5----5--5----5--5/-13--|--13----13--13----13--13/-12--|


                                                             
------------------------------|-----------------------------|
------------------------------|-----------------------------|
------------------------------|-----------------------------|
--12----12--12----12--12/-13--|--13----13--13----13--13/-5--|


                                                                         
------------------------|-----------------------|-----------------------|
---------------------0--|-----------------------|-----------------------|
--0--0--0--2----3-------|-----------------------|----------3----2----0--|
------------------------|--1----1--1----1--1----|--1/-0-----------------|


                                                                        
-----------------------|-----------------------|-----------------------|
-----------------------|--------------------0--|-----------------------|
-----------------------|--0----0--2----3-------|-----------------------|
--1----1--1----1--1----|-----------------------|--1----1--1----1--1----|


                                                                       
-----------------------|-----------------------|----------------------|
-----------------------|-----------------------|----------------------|
-----------------------|-----------------------|----------------------|
--1--0----0----0----0--|--1----1--1----1--1----|--1----1/-3----5/-----|


                                                      
--------------------------|--2--2--2--2--2--2--2--2--|
--------------------------|--------------------------|
--------------------------|--------------------------|
--3--3--3--3--3--3--3--3--|--------------------------|


                                                                           
--2--2--2--2--2--2--2--2--|-----------2-----------|--0--0--0--4----0------|
--------------------------|--3--3--3-------3------|-----------------------|
--------------------------|-----------------------|-----------------------|
--------------------------|-----------------------|-----------------------|


                                                                    
--2/-----7----4----5--|----4----2----------|-----------2-----------|
----------------------|--------------------|--3--3--3-------3------|
----------------------|--------------------|-----------------------|
----------------------|--------------------|-----------------------|


                                                                    
--0--0--0--4----0------|--2/-----7----4----5--|----4----2/---------|
-----------------------|----------------------|--------------------|
-----------------------|----------------------|--------------------|
-----------------------|----------------------|--------------------|


                                                                      
--9------7----5----4--|----2----0----2--4--0--|--2/-----7----4----5--|
----------------------|-----------------------|----------------------|
----------------------|-----------------------|----------------------|
----------------------|-----------------------|----------------------|


                                                                 
----4----2----------|-----------------------|-------------------|
--------------------|-----------------------|-------------------|
--------------------|-----------0-----------|-------------------|
--------------------|--1--1--1-------1------|--3----------------|





Comments


Popular Anathema tabs & chords
Destiny Is Dead Bass Tabs
Better Off Dead Chords
Forgotten Hopes Chords
A Natural Disaster 1 Tabs
Drug-Addict Tabs
Moonlight Tabs
Panic Tabs
Pressure Tabs
Release Tabs
Suicide Veil Tabs


Song lyrics



↑ Back to top | Tablatures and chords are parodies/interpretations of the original songs. You may use it for private study, scholarship, research or language learning purposes only
© 2014 AZChords.com Contact us | Privacy policy | DMCA | Add/correct tabs | Request tabs | Top 50 tabs