>
 >
Eternity 1

Eternity 1 Bass Tabs

Anathema - Eternity 1 chords, tabs, tablatures, lyrics

Guitar lessons | Add/correct | Request | Top 50 tabs Artists:  A B C D E F G H I J K L M N O P Q R S T U V W X Y Z 0-9

Eternity 1 Bass Tabs – Anathema

CD, Sheet music, Poster

Do you like Eternity 1? Share with your friends now
Bass TabsBass Tabs v2
intro: [x3]
g|---------------------------------------------------------------|
D|---------------------------------------------------------------|
A|---------------------------------------------------------------|
E|--/5-5-5-5-5-5-5--1-1-1-1-1-1-1--0-0-0-0-0-0-0--1-1-1-1-1-1-1--|

fig 1: [x1]
g|-------------------------------------------------------------------
D|-------------------------------------------------------------------
A|---------7h8-8-8p7-7----------------------7h8-8-8-7-7-7-8p7-7-7-7--
E|--/5-7-8-------------/8-7-5-1-1-1-1/5-7-8--------------------------

-----------7h8-8-8-7-------------------------7h8-8-8-7-7-7-8-8-8--|
----/5-7-8-----------7-7h8-7-5-1-1-1-1/5-7-8----------------------|

fig 2: [x2]
g|---------------------------------------------------------------
D|---------------------------------------------------------------
A|------------5-5-5-5-5-----------5-5-5-5-5-----------8-8-8-8-8--
E|--5-5-5-5-5-----------5-5-5-5-5-----------5-5-5-5-5------------

-----------------------|
-----------------------|
--7-7-7-7-7-5-5-5-5-5--|
-----------------------|

fig 3: [x1]
g|------------------------------------------------/9-7-5-4p2--------
D|-----------------------------------------------------------3-3-3--
A|--------------5-5-5-5-5-5-------------5-5-5-5-5-------------------
E|--5-5-5-3h5-5-------------5-5-3h5-5-5-----------------------------

------4-5-4-2----------|---------------------------------------------
--2-2---------0-0-0-0--|---------------------------------------------
-----------------------|--------------5-5-5-------------------5-5-5--
-----------------------|--5-5-5-3h5-5-------3h5-5-5-5-5-3h5-5--------

----/9-7-5-4p2---3-------4-5-4-2----------|
---------------3---3-2-2---------0-0-0-0--|
--5---------------------------------------|
------------------------------------------|

fig 2. [x2]

fig 4: [x1]
g|-------------------------|---|---|------------------------------|
D|-------------------------|-%-|-%-|------------------------------|
A|--7-7-7-7-7-7-8-8-8-5-5--|-%-|-%-|--7-7-7-7-7-7-8-8-8-10-10-10--|
E|-------------------------|---|---|------------------------------|

fig 3: [x1]

chorus 1: [x1]
g|--------2---------4-------/9-7-4-5-4-2-2-2--|-----2---------4------
D|--3-3-3---3-5-5-5---5-5-7-------------------|-3-3---3-3-5-5---5----
A|--------------------------------------------|----------------------
E|--------------------------------------------|----------------------

--------/9-7-4-5-4-2-2-2--|--------2-----------4----------/9-7-4-5-4-2--
--5/7-7-------------------|--3-3-3---3-3-5-5-5---5--5/7-7---------------
--------------------------|---------------------------------------------
--------------------------|---------------------------------------------

--2-2--|--2/9-7-5-4\2-0h2-2--|--2-/9-7-4-5-4-2-2-2---------------------|
-------|---------------------|---------------------3-3-3-3-3-5-5-5-5-5-|
-------|---------------------|-----------------------------------------|
-------|---------------------|-----------------------------------------|

fig 5: [x1]
g|----------------------------------------------|--------------------
D|--7-7-7-7-7-7---------------------------------|--------------------
A|--------------/8-8-8-8-8-8p7-7-7-7-7h8-8-8-8--|----------/8-8-8-8--
E|----------------------------------------------|--5-5-5-5-----------

-----------------------|---|---|
-----------------------|-%-|-%-|
--8p7-7-7-7-7h8-8-8-8--|-%-|-%-|
-----------------------|---|---|

fig 6: [x1]
g|---------------------------------------------------------------------
D|---------------------------------------------------------------------
A|--------7h8-8-8p7---------------------------7h8-8-8-8-8-8p7-7-7-7-7--
E|--5-7-8-----------7-8-7-5-1-1-1-1-1-1/5-7-8--------------------------

---------------|
---------------|
--7-8-8-8-8-8--|
---------------|

chorus 2: [x1]
g|------------------------5-5-5-7-7---/9-7-4-5-4-2-2-2--|------
D|--3-3-3-5-5-5-7-7-5-5-5-----------7-------------------|-3-3--
A|------------------------------------------------------|------
E|------------------------------------------------------|------

--2---------4---------/9-7-4-5-4-2-2-2--|--------2-----------4----
----3-3-5-5---5-5/7-7-------------------|--3-3-3---3-3-5-5-5---5--
----------------------------------------|-------------------------
----------------------------------------|-------------------------

--------/9-7-4-5-4-2-2-2--|--2/9-7-5-4\2-0h2-2--|--2-/9-7-4-5-4-2-2-2--
--5/7-7-------------------|---------------------|----------------------
--------------------------|---------------------|----------------------
--------------------------|---------------------|----------------------

--|----------------|
--|--3-3-3-3-3-5---|
--|----------------|
--|----------------|





Comments


Popular Anathema tabs & chords
Beloved Bass Tabs
Pitless Bass Tabs
Electricity Chords
Parisienne Moonlight Chords
Untouchable Part 2 1 Chords
Everwake Intro Tabs
Kingdom Tabs
Moonlight Tabs
Pitiless Tabs
Silent Enigma Intro Tabs


Song lyrics



↑ Back to top | Tablatures and chords are parodies/interpretations of the original songs. You may use it for private study, scholarship, research or language learning purposes only
© 2014 AZChords.com Contact us | Privacy policy | DMCA | Add/correct tabs | Request tabs | Top 50 tabs