» » »

In My Bed Tabs (ver.1)

Artists:  A B C D E F G H I J K L M N O P Q R S T U V W X Y Z # 

In My Bed Tabs (ver.1)

Amy Winehouse
Rating:
5/5 (1 vote)

Hard to play? Try these video lessons and learn fast.
                 chorus are to be strummed..

INTRO:
e|---------------------------------------------------------------------|
B|---------------------------------------------------------------------|
G|---------------------------------------------------------------------| 2x
D|---------------------------------------------------------------------|
A|-------1-2-3-2-3-------1-2-3-2-3-----1-2-3-2-3----3-2-3-2-3-2-3------|
E|--1-0-------------1-0------------1-0------------1--------------------|

VERSE:
    Cm7b5     F7#9      Bbm7
e|--------------------------------------------------|
B|---7--7-----9---9-----6---6-----------------------|
G|---8--8-----8---8-----6---6-----------------------| 4x
D|---8--8-----7---7-----6---6-----------------------|
A|------------8---8------------------------6-7------|
E|---8--8---------------6---6----6-7-8-7-8----------|

CHORUS:
     Fmaj9     Bbm7     Fmaj7    Bbm7
e|-----------------------------------------|
B|----8--8-----6--6-----10--10---6---6-----|
G|----9--9-----6--6-----9---9----6---6-----|
D|----7--7-----6--6-----10--10---6---6-----|
A|----8--8--------------8---8--------------|
E|-------------6--6--------------6---6-----|

      Fmaj9     Bm7      Fmaj7     Bb7sus    Bbm7
e|-----------------------------------------------------|
B|----8--8-----6--6-----10--10------6---------6--------|
G|----9--9-----6--6-----9---9-------8---------6--------|
D|----7--7-----6--6-----10--10------6---------6--------|
A|6-7-8--8--------------8---8-------8---------8--------|
E|-------------6--6-----------------6---------6--------|

BEFORE CHORUS AND OUTRO:

     G7b9         C7      Fmaj7
e|-----------------------|--8----------|
B|---13--11------11--11--|--10---------|
G|---10--10------9---9---|--9----------|
D|---11--11------10--10--|--10---------|
A|---10--10--------------|--8----------|
E|---------------8---8---|-------------|
            
Hard to play? Try these video lessons and learn fast. | Correct




comments powered by Disqus
↑ Back to top | Tablatures and chords are parodies/interpretations of the original songs. You may use it for private study, scholarship, research or language learning purposes only