» » »

Alter Bridge, Burn It Down Tabs (ver.1)

Artists:  A B C D E F G H I J K L M N O P Q R S T U V W X Y Z # 

Burn It Down Tabs (ver.1)

Alter Bridge Tabs
Rating:
5/5 (5 votes)
Burn It Down lessons Tabs too difficult? Try these video lessons and learn fast
                Hey all, Ive updated the solo on the song, now its about 95ish% right. The end of the
solo's a tad iffy, but its surprising hard to tab out! The introduction, verse, chorus

good luck!
Phil / Logz

----------
Standard Tuning.


==========
Introduction: Play Twice (x2) - Clean
==========

e|--0--------0--0--0---0--------0--------0--------0--0--0--0------------|
B|--0--0--0--0--0--0-----0------0--0--0--0-----------0--0----0----------|
G|--8--8--8--8--7--7-------7----4--4--4--4------5----3--3------3--------|
D|--9--9--9--9--7--7------------7--7--7--7----5------4--4--------4------|
A|--9--9--9--9--5--5--5------5--7--7--7--7--3--------4--4----------4----|
E|--7--7--7--7------------------5--5--5--5-----------2--2------------2--|

e|-----------0------0--------0-----------|
B|-------------0----0--0--0--0--0~~~~~~--|
G|---------------3--3--3--3--3--3~~~~~~--|
D|------------------4--4--4--4--4~~~~~~--|
A|------------------4--4--4--4--4~~~~~~--|
E|--0-2h3p2---------2--2--2--2--0/2/3\2--|

==========
Verse One: Play 4 times (x4) - Clean
==========

e|--0--------0--0--0---0--------0--------0--------0--0--0--0------------|
B|--0--0--0--0--0--0-----0------0--0--0--0-----------0--0----0----------|
G|--8--8--8--8--7--7-------7----4--4--4--4------5----3--3------3--------|
D|--9--9--9--9--7--7------------7--7--7--7----5------4--4--------4------|
A|--9--9--9--9--5--5--5------5--7--7--7--7--3--------4--4----------4----|
E|--7--7--7--7------------------5--5--5--5-----------2--2------------2--|

e|-----------0------0--------0-----------|
B|-------------0----0--0--0--0--0~~~~~~--|
G|---------------3--3--3--3--3--3~~~~~~--|
D|------------------4--4--4--4--4~~~~~~--|
A|------------------4--4--4--4--4~~~~~~--|
E|--0-2h3p2---------2--2--2--2--0/2/3\2--|

==========
Chorus 1: Play Clean
==========

e|--7-7-7-7-7-7-7-7-7-7--3-3-3-3--5-5-5-5--0-0-0-0--0-0-0--0--|
B|--7-7-7-7-7-7-7-7-7-7--3-3-3-3--5-5-5-5--0-0-0-0--0-0-0--0--|
G|--8-8-8-8-8-8-8-8-8-8--4-4-4-4--7-7-7-7--6-6-6-6--7-7-7--6--|
D|--9-9-9-9-9-9-9-9-9-9--5-5-5-5--7-7-7-7--7-7-7-7--7-7-7--7--|
A|--9-9-9-9-9-9-9-9-9-9--5-5-5-5--5-5-5-5--7-7-7-7--7-7-7--7--|
E|--7-7-7-7-7-7-7-7-7-7--3-3-3-3-----------5-5-5-5--5-5-5--5--|

e|--7-7-7-7-7-7-7-7-7-7--3-3-3-3--5-5-5-5--0-------------------|
B|--7-7-7-7-7-7-7-7-7-7--3-3-3-3--5-5-5-5--0-------------------|
G|--8-8-8-8-8-8-8-8-8-8--4-4-4-4--7-7-7-7--6------5---5-7^8^7--|
D|--9-9-9-9-9-9-9-9-9-9--5-5-5-5--7-7-7-7--7--5-7---7----------|
A|--9-9-9-9-9-9-9-9-9-9--5-5-5-5--5-5-5-5--7-------------------|
E|--7-7-7-7-7-7-7-7-7-7--3-3-3-3-----------5-------------------|

==========
Verse Two: Play 4 times (x4) - Clean
==========

e|--0--------0--0--0---0--------0--------0--------0--0--0--0------------|
B|--0--0--0--0--0--0-----0------0--0--0--0-----------0--0----0----------|
G|--8--8--8--8--7--7-------7----4--4--4--4------5----3--3------3--------|
D|--9--9--9--9--7--7------------7--7--7--7----5------4--4--------4------|
A|--9--9--9--9--5--5--5------5--7--7--7--7--3--------4--4----------4----|
E|--7--7--7--7------------------5--5--5--5-----------2--2------------2--|

e|-----------0------0--------0-----------|
B|-------------0----0--0--0--0--0~~~~~~--|
G|---------------3--3--3--3--3--3~~~~~~--|
D|------------------4--4--4--4--4~~~~~~--|
A|------------------4--4--4--4--4~~~~~~--|
E|--0-2h3p2---------2--2--2--2--0/2/3\2--|

(5th Time Played)                                    DISTORTION-----------
e|--0--------0--0--0---0--------0--------0--------0--0--0--0------------|
B|--0--0--0--0--0--0-----0------0--0--0--0-----------0--0----0----------|
G|--8--8--8--8--7--7-------7----4--4--4--4------5----3--3------3--------|
D|--9--9--9--9--7--7------------7--7--7--7----5------4--4--------4------|
A|--9--9--9--9--5--5--5------5--7--7--7--7--3--------4--4----------4----|
E|--7--7--7--7------------------5--5--5--5-----------2--2------------2--|

--------------------------------------|
e|-----------0------0--------0-----------|
B|-------------0----0--0--0--0--0~~~~~~--|
G|---------------3--3--3--3--3--3~~~~~~--|
D|------------------4--4--4--4--4~~~~~~--|
A|------------------4--4--4--4--4~~~~~~--|
E|--0-2h3p2---------2--2--2--2--0/2/3\2--|

==========
Chorus Two: Play 4 times (x4) - Distorted
==========

e|--7-7-7-7-7-7-7-7-7-7--3-3-3-3--5-5-5-5--0-0-0-0--0-0-0--0--|
B|--7-7-7-7-7-7-7-7-7-7--3-3-3-3--5-5-5-5--0-0-0-0--0-0-0--0--|
G|--8-8-8-8-8-8-8-8-8-8--4-4-4-4--7-7-7-7--6-6-6-6--7-7-7--6--|
D|--9-9-9-9-9-9-9-9-9-9--5-5-5-5--7-7-7-7--7-7-7-7--7-7-7--7--|
A|--9-9-9-9-9-9-9-9-9-9--5-5-5-5--5-5-5-5--7-7-7-7--7-7-7--7--|
E|--7-7-7-7-7-7-7-7-7-7--3-3-3-3-----------5-5-5-5--5-5-5--5--|

==========
'Verse Three': Clean
==========

e|--0-------------0-----0----0----0-0-0--0-0-0---------0--0-0-0-------------------|
B|----0-------------0--------0------0-0--0-0-0-0-0-0-0-0--0-0-0-------------------|
G|------2--------------------4------4/6--6-6-6-7-7-7-7-6--6-6-6-7p5---5-7b8r7p5---|
D|--------3-----------3---3--5--5---5/7--7-7-7-7-7-7-7-7--7-7-7-----7-----------7-|
A|----------3----------------5------5/7--7-7-7-7-7-7-7-7--7-7-7-------------------|
E|------------1-1------------3------3/5--5-5-5-5-5-5-5-5--5-5-5-------------------|

e|--0-0-0-----0-0----0-0-0--0-0-0---------0-0-0-0---------0--|
B|--0-0---0---0-0------0-0--0-0-0-0-0-0-0-0-0-0-0-0-0-0-0-0--|
G|--2-2-------2/4------4/6--6-6-6-7-7-7-7-6-6-6-6-7-7-7-7-6--|
D|--3-3-----3-3/5--5---5/7--7-7-7-7-7-7-7-7-7-7-7-7-7-7-7-7--|
A|--3-3-------3/5------5/7--7-7-7-7-7-7-7-7-7-7-7-7-7-7-7-7--|
E|--1-1-------1/3------3/5--5-5-5-5-5-5-5-5-5-5-5-5-5-5-5-5--|

   |DISTORTION-->
e|------------------------------------------------------------|
B|------------------------------------------------------------|
G|--2-2-2-2--5-5-5--4-4-4-4--7--2-2-2-2--5-5-5--4-4-4-4--7-6--|
D|--3-3-3-3--5-5-5--5-5-5-5--7--3-3-3-3--5-5-5--5-5-5-5--7-6--|
A|--3-3-3-3--3-3-3--5-5-5-5--5--3-3-3-3--3-3-3--5-5-5-5--5-4--|
E|--1-1-1-1---------3-3-3-3-----1-1-1-1---------3-3-3-3-------|

e|-------------------------------------------------------------------------|
B|-------------------------------------------------------------------------|
G|--2-2-2-2--5-5-5--4--6-6-6-7-7-6--4-4-4-5-5-4--2-2-2-3-3-2--4-4-4-5-5-4--|
D|--3-3-3-3--5-5-5--5--7-7-7-7-7-7--5-5-5-5-5-5--3-3-3-3-3-3--5-5-5-5-5-5--|
A|--3-3-3-3--3-3-3--5--7-7-7-7-7-7--5-5-5-5-5-5--3-3-3-3-3-3--5-5-5-5-5-5--|
E|--1-1-1-1---------3--5-5-5-5-5-5--3-3-3-3-3-3--1-1-1-1-1-1--3-3-3-3-3-3--|

==========
Last Chorus: Play 4 times (x4) - Distorted
==========

e|---------------------------------------------------|
B|---------------------------------------------------|
G|--6-6-6-6-6-6-6-6--2-2-2-2--5-5-5-5--4-4-4-5-5-4-4-|
D|--7-7-7-7-7-7-7-7--3-3-3-3--5-5-5-5--5-5-5-5-5-5-5-|
A|--7-7-7-7-7-7-7-7--3-3-3-3--3-3-3-3--5-5-5-5-5-5-5-|
E|--5-5-5-5-5-5-5-5--1-1-1-1-----------3-3-3-3-3-3-3-|

===========
Solo
===========


e|-----------------------------------------------------------------------|
B|--12-----------------------------13-12-------12------------------------|
G|--14b16r14b16r14b16-14pb16r14-12-------14p12-14b16r14b16--12h14h17p14--|
D|-----------------------------------------------------------------------|
A|-----------------------------------------------------------------------|
E|-----------------------------------------------------------------------|

                                             TF-|    TF-|   TF--|    TF-----|
e|-------------15-------------------------------------------------------------|
B|--17\0----------17\0--------------------------------------------------------|
G|--------2/14---------2p0h2--------------0h2p0h4-0h2p0h4-0h2p0h4-0h2p0h4p2h4-|
D|----------------------------------------------------------------------------|
A|---------------------------3h5p3p0---0--------------------------------------|
E|-----------------------------------3----------------------------------------|

	  Trill........................................|
	  Wah..........................................|       PM........|
e|--------------------------------------------------------------------------|
B|--------------------------------------------------------------------------|
G|--(4)\0-------------------------------------------------------------------|
D|-------------------------------------------------------------14p12h14p12--|
A|-------------------------------------------------------12h15--------------|
E|--------10h12p10h15p10h12p10h12p10h15p10h12-12p10/15\0--------------------|

          PM........|       PM........|             PH   Trill..............
e|--------------------------------------------------------------------------|
B|-------------------------------------------------------17p12h13h15p13p12--|
G|--------------------------------------------------12*---------------------|
D|--------12p10h12p10-------14p12h14p12-------12p10-------------------------|
A|--12h15-------------12h15-------------12h15-------------------------------|
E|--------------------------------------------------------------------------|

    .....................................................|
e|-------------------------------------------------------------------------|
B|--(12)h13p12h17p15p12h13h15p13p12-17p12h13h15p13p12h13\0-----------------|
G|-------------------------------------------------------------------------|
D|---------------------------------------------------------19-19-17\10/12--|
A|-------------------------------------------------------------------------|
E|-------------------------------------------------------------------------|

                           PH..........
e|-------------------------------------|
B|-------------------------------------|
G|-------------------------------------|
D|--14p12p10----------10---12*b(14*)~--|
A|-----------12p10h12---12-------------|
E|-------------------------------------|


==========
Background solo rhythm
==========

e|--------------|
B|--------------|
G|--6--4--4--4--|
D|--7--5--3--5--|
A|--7--5--3--5--|
E|--5--3--1--3--|


Legend:
~ 		Let note ring
\		Slide Down
/ 		Slide Up
h		Hammer on
p 		Pick off
b		Bend
r		Release
pb		Pre Bend
* 		Harmonic (Always pinch harmonics)
() 		Carry note on from previous line

PH		Pinch harmonic
TF		Trem Flutter
PM		Palm Mute
Trill		Series of fast hammer on and pull offs
Wah		Wah Wah effect
            

comments powered by Disqus
↑ Back to top | Alter Bridge Tabs for Burn It Down. Lyrics for acoustic guitar and electric guitar. Tablatures and chords are parodies/interpretations of the original songs. You may use it for private study, scholarship, research or language learning purposes only