» » »

Burn It Down Bass tabs (ver.1)

Artists:  A B C D E F G H I J K L M N O P Q R S T U V W X Y Z # 

Burn It Down Bass tabs (ver.1)

Alter Bridge
Rating:
0/5 (0 votes)

Hard to play? Try these video lessons and learn fast.
                "Burn It Down" Alter Bridge

Standard Tuning

Save the "its on a 5 string" comments i know and im pretty sure its not in standard but 
it is in standard)

No bass in intro

come in with this when vocals start

G|-----------------------------------------------|
D|-------0--0------------------------------------|
A|-2--2--------0--0--3-3-------------------------|
E|------------------------2--2-0-2-3--2--2-2-3---|


G|------------------------------------|
D|-------0--0-------------------------|
A|-2--2--------0--0--3-3--------------|
E|------------------------2--2-0-2-3--|

Chorus *= do 5 of these notes on the 2nd chorus

G|--------------------------------------------------------------|
D|--------------------0--0------------------------------0--0----|
A|-2-2-2-2-2----------------0-0-0-0-0-2-2-2-2-2---------------0*|
E|------------3-3-3------------------------------3-3-3----------|

Verse x5

Chorus x4

Bridge
G|--------0------------------0--------|
D|------------------------------------|
A|-----------0---0--------------0---0-|
E|-1---3-------------1---3------------|

G|---------------------------------------------------------------------|
D|----------------------------0-0-----------------------------0-0--0---|
A|-----------3-3--3--------------------------3-3--3------------------4-|
E|-1--1--1-1--------3--3--3-3------1--1--1-1--------3--3--3-3----------|

G|-----------------------------------------------------------------------------------------------------------------0-0-0-0-|
D|-------------------------------------------------------------------------------------------------------------------------|
A|-----------3-3--3--------------------0--0--0-0---0-3-0-0-----------------3-3-3-3---------3-------------------------------|
E|-1--1--1-1---------3--3--3-3-3-3--3------------3----------3---3-3--3-3-3----------1--1-1---1-1--1--3-3-3--3-3-3----------|

Final Chorus x4
G|----------------------------------------------|
D|----------------------------------------------|
A|-0--0--0--0--0-----------3--3-----------------|
E|----------------1--1--1--------3--3--3--3--3--|

Outro x2 (* = play only on repeat)
G|-----------------------------------------------------------------------------0-0-0-0------|
D|------------------------------------------------------------------------------------------|
A|-0--0--0-0---0-3-0-0-----------------3-3-3-3---------3--------------------------------0*--|
E|-----------3----------3---3-3--3-3-3----------1--1-1---1-1--1--3-3-3--3-3-3---------------|
            
Hard to play? Try these video lessons and learn fast. | Correct




comments powered by Disqus
↑ Back to top | Tablatures and chords are parodies/interpretations of the original songs. You may use it for private study, scholarship, research or language learning purposes only