» » »

Wonderful Life Tabs

Artists:  A B C D E F G H I J K L M N O P Q R S T U V W X Y Z # 

Wonderful Life Tabs

(ver. 1)
Alter Bridge Tabs
 Rating:
4/5 (4 votes)
    Wonderful Life lessons Tabs too difficult? Try these video lessons and learn fast
                Just let me know if theres something wrong and please do correct me
Well here you goes Alter Bridge's Wonderful Life (See what I did there? *nudge* 
*nudge* *wink* *wink*)

Also. this is the, to what i think it sounds like, the acoustic version of their song 
Tuning: Open G
Intro:
e|----9--10--7--/12--10--9----------------|
B|----0---0--0----0---0--0--8--7--\3h5--3-|
G|----0---0--0----0---0--0--0--0---0-0--0-|
D|----0---0--0----0---0--0--0--0---0-0--0-|
A|----------------------------------------|
E|----------------------------------------|

Verse:
e|---9---10---7---/12---10---9----------------------|
B|--------------------------------8---7---\3h5---3--|2x and the last notes
G|-----0---0---0--------------------0---0------0---0|(the 3 and the 0)
D|--------------------------------------------------|repeats 3 or 4 times
A|--------------------------------------------------|after the second repeat
E|--------------------------------------------------|
Then repeat the whole thing but without repeating the 3 and 0

Chorus:
e|----9--10--7--/12--10--9----------------|
B|----0---0--0----0---0--0--8--7--\3h5--3-|
G|----0---0--0----0---0--0--0--0---0-0--0-|
D|----0---0--0----0---0--0--0--0---0-0--0-|
A|----------------------------------------|
E|----------------------------------------|
The chorus repeats twice but the last half only play up to the 7th chord 
(G chord)

Verse 2:
e|---9---10---7---/12---10---9----------------------|
B|--------------------------------8---7---\3h5---3--| 
G|-----0---0---0--------------------0---0------0---0|
D|--------------------------------------------------|
A|--------------------------------------------------|
E|--------------------------------------------------|
The second verse repeats twice

Bridge: (To what I think it is)
G           D
All that I am,
D           C
You let me be,
C                G
I will remember you,
G                      D
For all that you've done,
D             C
And given to me
C              G
Love will remain,
G            D
This I can see,
C                 G
Now and forever more
G            D
Because of you,
D           C
Now I believe
C       G
I believe
            
Submit corrections

↑ Back to top | Alter Bridge Tabs for Wonderful Life. Lyrics for acoustic guitar and electric guitar. Tablatures and chords are parodies/interpretations of the original songs. You may use it for private study, scholarship, research or language learning purposes only