» » »

A Life Once Lost, Vulture Tabs (ver.5)

Artists:  A B C D E F G H I J K L M N O P Q R S T U V W X Y Z # 

Vulture Tabs (ver.5)

A Life Once Lost Tabs
 Rating:
4/5 (6 votes)
Vulture lessons Tabs too difficult? Try these video lessons and learn fast
                now im only guessing on some of this so please critique me.

         *pinch harmonic ()*pinch harmonic with bend b~bending in and out quickly  
while playing  h-hammer

guitar 1 intro and verse
D|---2/3\2\1/2\1xxxxxxxxxx22-1\2/11xxxxxxxxxx-|-x-x-------|
A|--------------------------------------------|-----------|(3)*played once
D|--------------------------------------------|-----------|
g|--------------------------------------------|-----------|
b|--------------------------------------------|-----------|
e|--------------------------------------------|-----------|

guitar2
D|---2/3\2\1/2\1xxxxxxxxxx22-1\2/11xxxxxxxxxx-|
A|--------------------------------------------|
D|--------------------------------------------|
g|--------------------------------------------|
b|--------------------------------------------|
e|--------------------------------------------|

pre chorus riff
guitar 1
D|----00xxx3b3b-------|
A|------33------------|
D|5b----55------------|
g|-------------9997b~-|
b|--------------------|
e|--------------------|

guitar 2
D|----00xxx3b3b-------|
A|----0033------------|
D|5b----xx-----9997b~-|
g|------55------------|
b|--------------------|
e|--------------------|

chorus

guitar1&2

D|0-0-0-0-0-0-0-0-0-5-7-9---0-0-0-0-0-0-0-0-0-0-5-7-9---0-0-0-0-0-0-0-0-0-|
A|-----------9@----------9b^-------------9@----------7b~-----------9@-----|
D|------------------------------------------------------------------------|
g|------------------------------------------------------------------------|
b|------------------------------------------------------------------------|
e|------------------------------------------------------------------------|

D|0-0-0---0-0-0-0-0---0-0-0-0-0-----|
A|-----9b~---------9b~---------11b~-|
D|----------------------------------|
g|----------------------------------|   *play 2nd time without numbers with @
b|----------------------------------|
e|----------------------------------|

verse(same)

bridge#1 guitar 1&2

D|2/3\2\1/2\1x-x-x-x-x22-1/2\11xxx-x-x-x-|
A|---------------------------------------|
D|---------------------------------------|
g|---------------------------------------|
b|---------------------------------------|
e|---------------------------------------|

bridge#2 guitar 2

D|1--1-1-1-1-|
A|1--1-1-1-1-|
D|1--1-1-1-1-|
g|-----------|
b|-----------|
e|-----------|

guitar 1 solo

D|-------------------------------------------------|
A|-------------------------------------------------|
D|-------------------------------------------------|
g|-------------------------------------------------|
b|4h6h74h6h74h6h74h6h74h6h77h6647h6h47h647h6h47h6h4
e|-------------------------------------------------

guitar 1
                          play after second repeat riff2
D|0-4bx-0-0-4bx-0--x-x-x|-3b~0-3-5-3-0-----|
A|-----------------x-x-x|3-----------------|(3)*
D|----------------------|------------------|
g|----------------------|------------------|
b|----------------------|------------------|
e|----------------------|------------------|

guitar 2

D|---------------------------------|
A|---------------------------------|
D|---------------------------------|
g|---------------------------------|
b|15^15^17^17^17^17^17^19^bend full
e|---------------------------------

dunno next solo

palm mute ..
D|000-000-0-0-0---0-0-0-0-0-000-000|then play riff2
  ... ... . . .   . . . . . ... ...|

then play pre chorus riff
            
Submit corrections

comments powered by Disqus
↑ Back to top | A Life Once Lost Tabs for Vulture. Lyrics for acoustic guitar and electric guitar. Tablatures and chords are parodies/interpretations of the original songs. You may use it for private study, scholarship, research or language learning purposes only