» » »

A Life Once Lost, Vulture Tabs (ver.3)

Artists:  A B C D E F G H I J K L M N O P Q R S T U V W X Y Z # 

Vulture Tabs (ver.3)

A Life Once Lost Tabs
 Rating:
4.2/5 (5 votes)
Vulture lessons Tabs too difficult? Try these video lessons and learn fast
1
                -------------------------------------------------------------------------------
                           "Vulture" by A Life Once Lost
-------------------------------------------------------------------------------

This is my first (and hopefully accurate) tab ever, and it's of a great song. I don't 
the solo, and I'm sorry about that. I'd love some feedback on this tab. Thanks.

Tuning: DADGBE                 * = Pinch harmonic

Intro
e|----------------------------|
B|----------------------------|
G|----------------------------|
D|----------------------------|
A|-----------------------*3---|
D|3-2-1-00000--3-2-1-0-000----|
        xxxxx          xxx

Verse riff
e|------------------------------------------------------|
B|------------------------------------------------------|
G|------------------------------------------------------|
D|------------------------------------------------------|
A|3-2-1--------3-2-1-0------3-2-1--------3-2-1-0--------|
D|3-2-1-00000--3-2-1-0-0000-3-2-1-00000--3-2-1-0-0000---|
        xxxxx          xxxx       xxxxx          xxxx

Pre-chorus
e|-----------------|
B|-----------------|
G|-----------------|
D|-----55----------|
A|1/5--33-^^--8886-|
D|---0----33-0-----|
     x       x

Chorus
e|-------------------------------------------------------------------------------|
B|-------------------------------------------------------------------------------|
G|-------------------------------------------------------------------------------|
D|-----------6----------------------------6---------------------------5-----7----|
A|------------------------4-6--------------------------4-6------------3-----5----|
D|0-0-3-0-0-0---0-0-0-5-7------0-0-3-0-0-0---0-0-0-5-7-----0-0-3-0-0-0--0-0------|
  x x x x x x   x x x x x      x x x x x x   x x x x x     x x x x x x  x x
e|-------------------------------------------------------------------------------|
B|-------------------------------------------------------------------------------|
G|-------------------------------------------------------------------------------|
D|-------------------------------------------------------------------5-----------|
A|------------------------4-6-------------------------4-6------------3----*3-----|
D|0-0-3-0-0-0-0-0-0-0-5-7-----0-0-3-0-0-0-0-0-0-0-5-7-----0-0-3-0-0-0--0-0-------|
  x x x x x x x x x x         x x x x x x x x x x x x     x x x x x x  x x

Riff under solo
e|----------------------------------------------------------|
B|----------------------------------------------------------|
G|----------------------------------------------------------|
D|----------------------------------------------------------|
A|------------------------2--2--2--2--2---2--2--2--2--2-----|
D|0000--0000--0000--0000--2--2--2--2--2---2--2--2--2--2-----|
  xxxx  xxxx  xxxx  xxxx
e|---------------------------------------------|
B|---------------------------------------------|
G|---------------------------------------------|
D|---------------------------------------------|
A|-----------------------------3-----------*3--|
D|001/6-00-001/6-00-00-001/6-0---6--3-5-0-3----|
  xx    xx xx    xx xx xx    x

Bridge riff
e|---------------------------------------------------------------------------|
B|---------------------------------------------------------------------------|
G|---------------------------------------------------------------------------|
D|---------------------------------------------------------------------------|
A|-------------------3-----------*3-----------------3------------------------|
D|00000000-00000-00----6-3-5-0-3----00000000-00000----6-3-5-0-3-4-5-6--------|
  xxxxxxxx xxxxx xx                 xxxxxxxx xxxxx

| /  slide up
| \  slide down
| h  hammer-on
| p  pull-off
| ~  vibrato
| x  Mute note
===============================================================================
            
Submit corrections

comments powered by Disqus
↑ Back to top | A Life Once Lost Tabs for Vulture. Lyrics for acoustic guitar and electric guitar. 1 Tablatures and chords are parodies/interpretations of the original songs. You may use it for private study, scholarship, research or language learning purposes only