» » »

A Life Once Lost, Vulture Tabs (ver.1)

Artists:  A B C D E F G H I J K L M N O P Q R S T U V W X Y Z # 

Vulture Tabs (ver.1)

A Life Once Lost Tabs
Rating:
3/5 (2 votes)
Vulture lessons Tabs too difficult? Try these video lessons and learn fast
                A Life Once Lost
"Vulture"

Dropped D (d a d g b e)

» Intro/Main
|--------------------------------------------------------------|
|--------------------------------------------------------------|
|--------------------------------------------------------------|
|--------------------------------------------------------------|
|-------------1-1-1-1-1-1-1-1-------------1-1-1-1-1-1-1-1-3*~~-|
|-3\2-2\1-1/2-0-0-0-0-0-0-0-0-3\2-2\1-1/2-0-0-0-0-0-0-0-0------|


» Pre-Chorus                                      2nd Gtr. ending
|------------------------------------------------|-------------|
|-----------------6-6----------------------------|-------------|
|-----------------5-5----------------------------|-/8-8-8------|
|-----------------5-5----------------------------|-------------|
|-----------------3-3-------------/10-10-10-9~-\-|-/6-6-6-5~-\-|
|-5-b---0-0-0-0-------x-3b--3b-xx----------------|-------------|


» Chorus (another guitar plays a variation here)
|--------------------------------------------------------------------|
|--------------------------------------------------------------------|
|--------------------------------------------------------------------|
|--------------------------------------------------------------------|
|---------------9-----------5-5-gb----------------9-----------5-3-gb-|
|-0-0-0-0-0-0-0---0-0-0-3-5---------0-0-0-0-0-0-0---0-0-0-3-5--------|

|---------------------------------------------------------------|
|---------------------------------------------------------------|
|---------------------------------------------------------------|
|-------------------------------------------------------------7-|
|---------------9-----------5-/9---------------5----------------|
|-0-0-0-0-0-0-0---0-0-0-3-5--------0-0-0-0-0-0----0-0-0-0-0-0---|

|----------------------------------------------------------------|
|----------------------------------------------------------------|
|----------------------------------------------------------------|
|----------------------------------------------------------------|
|---------------------------5-5-b----------------------------5-3-|
|-0-0-0-0-0-0-0-0-0-0-0-3-5--------0-0-0-0-0-0-0-0-0-0-0-3-5-----|

|--------------------------------------------------------------|
|--------------------------------------------------------------|
|--------------------------------------------------------------|
|--------------------------------------------------------------|
|---------------------------5-/9--------------5-----------5*~~-|
|-0-0-0-0-0-0-0-0-0-0-0-3-5-------0-0-0-0-0-0---0-0-0-0-0------|


» Rythym break
|---------------------------------------|
|---------------------------------------|
|---------------------------------------|
|---------------------------------------|
|-1-------1-------1-------1-------1-----|
|-1-0-0---1-0-0---1-0-0---1-0-0---1-0-0-|
    ...     ...     ...     ...     ...

» Leads (pick this if you prefer, of course)
|----------------------|---------------------|
|----------------------|---------------------|
|-7h8h10-11-p7h8h10-11-|-11p10p8p7-11p10p8p7-|
|----------------------|---------------------|
|----------------------|---------------------|
|----------------------|---------------------|
         T  p       T    T p       T p

» Second Rythym part
|-------------------------------------------------|----------------------|
|-------------------------------------------------|----------------------|
|-------------------------------------------------|----------------------|
|-------------8--------------8--------------------|----------------------|
|-------------6--------------6--------------------|-3---------------5*~~-|
|-0-0-6b--0-0----0-0-6b--0-0----0-0--0-0--0-0-0-0-|---3~--0-1-4-2-3------|


» Solo
|-11---11---13---13---15----22b~~~~~-|
|-14b--14b--16b--16b--18b~-----------|
|------------------------------------|
|------------------------------------|
|------------------------------------|
|------------------------------------|

|----------14-------------------------------------------------------------------------------------|
|-16-15-16----16-15-16-15-14-16-15-14-16-16-15-14-15-14----------14-15-14-16-16-15-14-15-14-------|
|-------------------------------------------------------15-14-15----------------------------15-14-|
|-------------------------------------------------------------------------------------------------|
|-------------------------------------------------------------------------------------------------|
|-------------------------------------------------------------------------------------------------|

|------------------------------------------------------------------------------|
|------------------------------------------------------------------------------|
|-15-14-13-15-14-13-15-14-13-15-14-13-14-13-------13-13-------14-14-13---------|
|-------------------------------------------16-13-------16-13----------16-13~\-|
|------------------------------------------------------------------------------|
|------------------------------------------------------------------------------|


» Enter, one Randy Blythe..
|--------------------------------------------------|--------------------|---------------------|
|--------------------------------------------------|--------------------|---------------------|
|--------------------------------------------------|--------------------|---------------------|
|--------------------------------------------------|--------------------|---------------------|
|--------------------------------------------------|-1--------------5*~-|-1-------------------|
|-0-0-0-0--0-0-0-0--0-0-0---0-0-0-0-0-0-0--0--0--0-|---3~-0-1-4-2-3-----|---3~--0-1-4-0-1-3-4-|
            

comments powered by Disqus
↑ Back to top | A Life Once Lost Tabs for Vulture. Lyrics for acoustic guitar and electric guitar. Tablatures and chords are parodies/interpretations of the original songs. You may use it for private study, scholarship, research or language learning purposes only