» » »

Vulture Tabs (ver.2)

Artists:  A B C D E F G H I J K L M N O P Q R S T U V W X Y Z # 

Vulture Tabs (ver.2)

A Life Once Lost
Rating:
3/5 (1 vote)

Hard to play? Try these video lessons and learn fast.
                I'm the same guy who did the "With Pitiless Blows" one. Here we go!

P.M. = palm muted string(s)
b = bend
s = squeal (not enough space to put "artificial harmonic")

Verse

E -------------------------------------------|
B -------------------------------------------|
G -------------------------------------------|
D -------------------------------------------|
A -3-2-2-1-----------2-3-2-1-----------------|
D ---------0-0-0-0-0---------0-0-0-0-0-0-0-0-|
           . . . . .         . . . . . . . .

Come in after the lead does the squeal.

Bridge

E ----------------------------------|
B ----------------------------------|
G ----------------------------------|
D -------------------------5-5-5-4b-|
A ---------3--3---------------------|
D -5--0--0------0-3b-3b-3b----------|
      .  .      .

Chorus

E -----------------------------------|
B -----------------------------------|
G -----------------------------------|
D ------------------4----------------|
A -------------------------------3-5-|
D -0--0--0--0--0--0---0--0-2-3-5-----|

E -----------------------------------------|
B -----------------------------------------|
G -----------------------------------------|   the little "4's" on the chorus
D -----------------------4-----------------|    are off-time.
A ------------------------------------5-3--|
D -0--0--0--0--0--0--0--0--0--0-2-3-5------|

E -----------------------------------------------------------------------|
B -----------------------------------------------------------------------|
G -----------------------------------------------------------------------|
D -----------------------4---------------------------------5-------------|
A ------------------------------------3-5--------------------------------|
D -0--0--0--0--0--0--0--0--0--0-2-3-5-----0--0--0--0--0--0---0--0--0--0--|

(cont.)

E --------|
B --------|
G --------|
D ------7-|
A --------|
D -0--0---|

The second half of the chorus...

E ----------------------------------|
B ----------------------------------|
G ----------------------------------|
D ----------------------------------|
A ------------------------------3-5-|
D -0--0--0--0--0--0--0--0-2-3-5-----|

E ----------------------------------------|
B ----------------------------------------|
G ----------------------------------------|
D ----------------------------------------|
A ------------------------------------5-3-|
D -0--0--0--0--0--0--0--0--0--0-2-3-5-----|

E ---------------------------------------------------------|
B ---------------------------------------------------------|
G ---------------------------------------------------------|
D ---------------------------------------------------------|
A ---------------------------------5-8------------------5--|b
D -0--0--0--0--0--0--0--0--0-2-3-5-----0--0--0--0--0--0----|

Theres'a little post-chorus chuggin --

E -----------------------|
B -----------------------|
G -----------------------|
D -----------------------|
A -0--0--0--0-0-0--0-0-0-|
D -0--0--0--0-0-0--0-0-0-|
   .  .  .  . . .  . . .

Pre-solo/post solo verse

E --------------------------------------------|
B --------------------------------------------|   Just slightly different than
G --------------------------------------------|      before.
D --------------------------------------------|
A -3-2-2-1-----------2-3-2-1------------------|
D ---------0--0--000---------0--000-000-------|
           .  .  ...         .  ... ...

Pre solo/1st half of the solo

E --------------|
B --------------|      Repeat a bunch of times.
G --------------|
D --------------|
A --------------|
D -2-1-00-------|
       ..

Second half of solo

E ------------------------------------------------------------------------|
B ------------------------------------------------------------------------|
G ------------------------------------------------------------------------|
D ------------------------------------------------------------------------|
A --------------------------------------------------2---------------1--2s-|
D -0-0--0-0-5-0-5-0-0-5-0-5-0-0--0-0--0-0-0--5-0-5----3--1--3--4--1-------|

Breakdown

E -------------------------------------------------------------------|
B -------------------------------------------------------------------|
G -------------------------------------------------------------------|
D -------------------------------------------------------------------|
A -----------------0-0-------------------0-0-0-------------------0-0-|
D -0-0-0-0-0-0-0-0-0-0---0-0-0-0-0-0-0-0-0-0-0---0-0-0-0-0-0-0-0-0-0-|
   . . . . . . . . . .   . . . . . . . . . . .   . . . . . . . . . .

Tack the little 'sidewinder' bit on the end of the breakdown, then repeat the verse or 
or whatever as you find necessary.
            
Hard to play? Try these video lessons and learn fast. | Correct




comments powered by Disqus
↑ Back to top | Tablatures and chords are parodies/interpretations of the original songs. You may use it for private study, scholarship, research or language learning purposes only