>
 >
Shooting Star 6

Shooting Star 6 Guitar Tabs

Air Traffic - Shooting Star 6 chords, tabs, tablatures, lyrics

Guitar lessons | Add/correct | Request | Top 50 tabs Artists:  A B C D E F G H I J K L M N O P Q R S T U V W X Y Z 0-9

Shooting Star 6 Guitar Tabs – Air Traffic

CD, Sheet music, Poster

Do you like Shooting Star 6? Share with your friends now
Bass TabsChordsChords v2Chords v3TabsTabs v2Tabs v3Tabs v4Tabs v5Tabs v6Ukulele
e|--------------------------------------------------------------------------|
B|-----8--------------------------------------------------------------------|
G|-7s9---9-7s5-7-5---5--------------------5--5--7--7-7-7--------------------|
D|-----------------7---7--7-7-7-5-7-7-7-7--7--------------------------------|
A|--------------------------------------------------------------------------|
E|--------------------------------------------------------------------------|

e|--------------------------------------------------------------------------|
B|-----8--------------------------------------------------------------------|
G|-7s9---9-7s5-7-5---5--------------------5--5--7--7-7-7--------------------|
D|-----------------7---7--7-7-7-5-7-7-7-7--7--------------------------------|
A|--------------------------------------------------------------------------|
E|--------------------------------------------------------------------------|

e|---------------------------9-9s10-10-10--10-10s9-9-9->--------------------|
B|-----8-----8-8s10-10-10-10------------------------------------------------|
G|-7s9---9-7----------------------------------------------------------------|
D|--------------------------------------------------------------------------|
A|--------------------------------------------------------------------------|
E|--------------------------------------------------------------------------|

e|--------------------------------------------------------------------------|
B|-----8--------------------------------------------------------------------|
G|-7s9---9-7s5-7-5---5--------------------5--5--7--7-7-7--------------------|
D|-----------------7---7--7-7-7-5-7-7-7-7--7--------------------------------|
A|--------------------------------------------------------------------------|
E|--------------------------------------------------------------------------|

e|---------------------------9-9s10-10-10--10-10s9-9-9->--------------------|
B|-----8-----8-8s10-10-10-10------------------------------------------------|
G|-7s9---9-7----------------------------------------------------------------|
D|--------------------------------------------------------------------------|
A|--------------------------------------------------------------------------|
E|--------------------------------------------------------------------------|

e|--------------------------------------------------------------------------|
B|-----8--------------------------------------------------------------------|
G|-7s9---9-7s5-7-5---5--------------------5--5--7--7-7-7--------------------|
D|-----------------7---7--7-7-7-5-7-7-7-7--7--------------------------------|
A|--------------------------------------------------------------------------|
E|--------------------------------------------------------------------------|

e|-----------------------------------------10-10-10s9->---------------------|
B|-----8--------------------------------------------------------------------|
G|-7s9---9-7s5-7-5---5------------------------------------------------------|
D|-----------------7---7--7-7-7-5-7-7-7-7-----------------------------------|
A|--------------------------------------------------------------------------|
E|--------------------------------------------------------------------------|


e|--------------------------------------------------------------------------|
B|-----8--------------------------------------------------------------------|
G|-7s9---9-7s5-7-5---5--5-5-5-5s7-7-7-7s9-9-9-12-12-12-12-------------------|
D|-----------------7--------------------------------------------------------|
A|--------------------------------------------------------------------------|
E|--------------------------------------------------------------------------|





Comments


Popular Air Traffic tabs & chords
Charlotte Bass Tabs
Charlotte 1 Bass Tabs
Ambulate Chords
I Like That Chords
Shooting Star 1 Chords
Hooting Star Tabs
Your Fractured Life 1 Tabs
Ambulate Ukulele
Posterity Ukulele
Still In Love Ukulele


Song lyrics



↑ Back to top | Tablatures and chords are parodies/interpretations of the original songs. You may use it for private study, scholarship, research or language learning purposes only
© 2014 AZChords.com Contact us | Privacy policy | DMCA | Add/correct tabs | Request tabs | Top 50 tabs