» » »

Air Traffic, Shooting Star Bass tabs (ver.1)

Artists:  A B C D E F G H I J K L M N O P Q R S T U V W X Y Z # 

Shooting Star Bass tabs (ver.1)

Air Traffic Tabs
 Rating:
4/5 (4 votes)
Shooting Star lessons Tabs too difficult? Try these video lessons and learn fast
1
                This is my second tab, and first tab for the bass part in this song out of every 
site. It amy not be entirely correct, but it sounds about right if you play intime 
to the faint bit of bass you can hear in the tune. As i said it is my cover, so 
its not 100% correct, but it fits in with the song when played right :)

(No bass until 1st chorus)
FIRST CHORUS (00:26)
G|---------------------------------------------------------\
D|--------------------------------------------------------- \
A|-0-0-0-3-0-3-5---------------0-0-0-3-0-3-2--------------- / X2
E|---------------0-0-0-3-0-3-5---------------1-1-1-1-1-33-5/

VERSE (00:38)
G|--------------------------------\
D|-------------------------------- \
A|-----7---8---10----5---8---3---2 / X2
E|-5------------------------------/

SECOND CHORUS (01:05)
G|--------------------------------------------------------\
D|-------------------------------------------------------- \
A|-0-0-0-0-0-0-0------------------------------------------ / X2
E|---------------0-0-0-0-0-0-0-1-1-1-1-1-1-1-3-3-3-3-3-3-3/

G|----------------------------------------------------------\
D|---------------------------------------------------------- \
A|-0-0-0-0-0-0-0-------------------------------5-5-5-5-5-5-5 / X2
E|---------------0-0-0-0-0-0-0-1-1-1-1-1-1-1-1--------------/

VERSE (01:31)
G|--------------------------------\
D|-------------------------------- \
A|-----7---8---10----5---8---3---2 / X2
E|-5------------------------------/


THIRD CHORUS (01:58)
G|--------------------------------------------------------\
D|-------------------------------------------------------- \
A|-0-0-0-0-0-0-0------------------------------------------ / X2
E|---------------0-0-0-0-0-0-0-1-1-1-1-1-1-1-3-3-3-3-3-3-3/

G|----------------------------------------------------------\
D|---------------------------------------------------------- \
A|-0-0-0-0-0-0-0-------------------------------5-5-5-5-5-5-5 / X2
E|---------------0-0-0-0-0-0-0-1-1-1-1-1-1-1-1--------------/

GUITAR SOLO
G|----------------\
D|---------------- \
A|-----7---8---10- / X10
E|-5--------------/

FOURTH CHORUS (03:27)
G|--------------------------------------------------------\
D|-------------------------------------------------------- \
A|-0-0-0-0-0-0-0------------------------------------------ / X2
E|---------------0-0-0-0-0-0-0-1-1-1-1-1-1-1-3-3-3-3-3-3-3/

G|----------------------------------------------------------\
D|---------------------------------------------------------- \
A|-0-0-0-0-0-0-0-------------------------------5-5-5-5-5-5-5 / X2
E|---------------0-0-0-0-0-0-0-1-1-1-1-1-1-1-1--------------/
            
Submit corrections

comments powered by Disqus
↑ Back to top | Air Traffic Bass for Shooting Star. Lyrics for acoustic guitar and electric guitar. 1 Tablatures and chords are parodies/interpretations of the original songs. You may use it for private study, scholarship, research or language learning purposes only