» » »

Air Traffic, Shooting Star Tabs (ver.3)

Artists:  A B C D E F G H I J K L M N O P Q R S T U V W X Y Z # 

Shooting Star Tabs (ver.3)

Air Traffic Tabs
 Rating:
4.3/5 (6 votes)
Shooting Star lessons Tabs too difficult? Try these video lessons and learn fast
                | /  Slide up
| \  Slide down
| h  Hammer-on
| p  Pull-off
| ~  Vibrato
| b  Bend


Verse 1 – Piano & Vocals
e|--------------------------------------------------------|
B|--------------------------------------------------------|
G|--------------------------------------------------------|    x15
D|--------------------------------------------------------|
A|--------------------------------------------------------|
E|--------------------------------------------------------|

Chorus 1 - With accenting on Drum beats
|------------------------------------------------------------------------|
|----13-13-13-13-13-13-13--15-15-15-15-15-15-15--13-13-13-13-13-13-13----|
|-/14--------------------14--------------------14------------------------|
|------------------------------------------------------------------------|
|------------------------------------------------------------------------|
|------------------------------------------------------------------------|

|---------------------------|
|-------------12b-----------|
|-14-14-12-14----14-12~(14)-|  x2         (14) = Second Time Ending
|---------------------------|
|---------------------------|
|---------------------------|

Verse 2
|--------------------------------------------------------|
|--------------------------------------------------------|
|--------------------------------------------------------|    x15
|--------------------------------------------------------|
|--------------------------------------------------------|
|--------------------------------------------------------|

|--------------------------|
|--------------------------|
|-14-14-14-14-14-14-14-14--|     x2 (Progressively Louder)
|--------------------------|
|--------------------------|
|--------------------------|

Chorus 2 - With accenting on Drum beats
|------------------------------------------------------------------------|
|------------------------------------------------------------------------|
|------------------     Same As C1       --------------------------------|
|------------------                      --------------------------------|
|------------------------------------------------------------------------|
|------------------------------------------------------------------------|

|------------------------------------------------------------------------|
|-------------------------13-13-13-13-13-13-13-13-12-12-12-12-12-12-12-12|
|-/14-14-14-14-14-14-14-14-----------------------------------------------|
|------------------------------------------------------------------------|
|------------------------------------------------------------------------|
|------------------------------------------------------------------------|

 1st Time Ending                   2nd Time Ending
|-------------------------|       |-----------------------------|
|-/15-15-15-15-15-15-15-15|       |-/15-15-15-15----------------|
|-------------------------|       |-------------14-12-14-12-14~-|
|-------------------------|       |-----------------------------|
|-------------------------|       |-----------------------------|
|-------------------------|       |-----------------------------|

Verse 3 – Same As Verse 2

Chorus 3 – Same As Chorus 2

Bridge
|--------------------------------------------------------|
|--------------------------------------------------------|
|--------------------------------------------------------|    x8
|--------------------------------------------------------|
|--------------------------------------------------------|
|--------------------------------------------------------|

Solo
|--------------------------------------------------------|
|----8---------------------------------------------------|
|-/9--9-7---7-------------------------------------7------|    x2
|---------10--10-7-10-7-7-7-7-7---7-7-7-7-10-7-10--------|
|------------------------------10------------------------|
|--------------------------------------------------------|

|------------------------------------------------------------------------|
|----8----8-/10-10-10-10-10-10-10-10-/13-13-13-13-13-13\12-12-12-12------|
|-/9--9-7----------------------------------------------------------------|
|------------------------------------------------------------------------|
|------------------------------------------------------------------------|
|------------------------------------------------------------------------|

^^^Repeat, but play first phrase once^^^

|--------------------------------------------------------|
|----8---------------------------------------------------|
|-/9--9-7--7-----------------------------------7---------|
|--------10-10-7-10-7-7-7-7-7--7-7-7-7-10-7-10-----------|
|----------------------------10--------------------------|
|--------------------------------------------------------|

|----------------------------------/8-8-8-8-7-7\---------|
|----8---------------------------------------------------|
|-/9--9-7--7---------------------------------------------|
|--------10-10-7-10-7-7-7-7-7--7-7-----------------------|
|----------------------------10--------------------------|
|--------------------------------------------------------|

|--------------------------------------------------------------------|
|----8---------------------------------------------------------------|
|-/9--9-7--7-----------------/7-7-7-/9-9-9-/12-12-12-/14-14-14-------|
|--------10-10-7-10-10-10-10-----------------------------------------|
|--------------------------------------------------------------------|
|--------------------------------------------------------------------|

Bridge/End Of Solo
|-------------------------------------------------------------------------|
|/13-13-13-13-13-13\12-12-12-12-12-12/15-15-15-15-15-15\10-10-10-10-10-10-|
|-------------------------------------------------------------------------|
|-------------------------------------------------------------------------|
|-------------------------------------------------------------------------|
|-------------------------------------------------------------------------|

|--------------------------------------------------------|
|-10-10--------------------------------------------------|
|--------------------------------------------------------| x2
|--------------------------------------------------------|
|--------------------------------------------------------|
|--------------------------------------------------------|

|------------------------------------------------------------------------|
|-13p12--13p12--13p12-13p12—-13p12--13p12-13p12--13p12--13p12-13-15-15-15|
|------14-----14-----------14-----14-----------14-----14-----------------|
|------------------------------------------------------------------------|
|------------------------------------------------------------------------|
|------------------------------------------------------------------------|

|--------------------------------------------------------|
|-15-15-15-15--------------------------------------------|
|--------------------------------------------------------|
|--------------------------------------------------------|
|--------------------------------------------------------|
|--------------------------------------------------------|

|------------------------------------------------------------------------|
|-------------------------13-13-13-13-13-13-13-13-12-12-12-12-12-12-12-12|
|-/14-14-14-14-14-14-14-14-----------------------------------------------|
|------------------------------------------------------------------------|
|------------------------------------------------------------------------|
|------------------------------------------------------------------------|

|----------------------------|
|-/15-15-15-15---------------|
|-------------14-12-14-12-14~|
|----------------------------|
|----------------------------|
|----------------------------|
            
Submit corrections

comments powered by Disqus
↑ Back to top | Air Traffic Tabs for Shooting Star. Lyrics for acoustic guitar and electric guitar. Tablatures and chords are parodies/interpretations of the original songs. You may use it for private study, scholarship, research or language learning purposes only