» » »

Shooting Star Tabs (ver.1)

Artists:  A B C D E F G H I J K L M N O P Q R S T U V W X Y Z # 

Shooting Star Tabs (ver.1)

Air Traffic
Rating:
5/5 (8 votes)

Hard to play? Try these video lessons and learn fast.
                Main Riff
e|---------------------------------------------------------------------------|
B|----13-13-13-13-13---15-15-15-15-15---13-13-13-13-13------------12---------|
G|-14---------------14---------------14---------------14-14-12-14---14-14-12-|
D|---------------------------------------------------------------------------|
A|---------------------------------------------------------------------------|
E|---------------------------------------------------------------------------|
Chorus
e|---------------------------------------------------------------------------|
B|----13-13-13-13-13---15-15-15-15-15---13-13-13-13-13------------12---------|
G|-14---------------14---------------14---------------14-14-12-14---14-14-12-| (x2)
D|---------------------------------------------------------------------------|
A|---------------------------------------------------------------------------|
E|---------------------------------------------------------------------------|

e|---------------------------------------------------------------------------|
B|----13--12--15---13--12----13--12--15--------------------------------------|
G|-14---------------------14------------12-14-12-14--------------------------|
D|---------------------------------------------------------------------------|
A|---------------------------------------------------------------------------|
E|---------------------------------------------------------------------------|
Solo
e|---------------------------------------------------------------------------|
B|-----8---------------------------------------------------------------------|
G|-9-9---9-7----7--------------------------------------7---------------------| (x2)
D|-----------10---10-7-10-7-7-7-7-7----7-7-7-7-10-7-10-----------------------| 
A|----------------------------------10---------------------------------------|
E|---------------------------------------------------------------------------|

e|---------------------------------------8-8-8-8-8-7-7-7-7-7-----------------|
B|-----8------8--10-10-10-10-10-10-10-10-------------------------------------|
G|-9-9---9-7-----------------------------------------------------------------|
D|---------------------------------------------------------------------------| 
A|---------------------------------------------------------------------------|
E|---------------------------------------------------------------------------|

e|---------------------------------------------------------------------------|
B|-----8---------------------------------------------------------------------|
G|-9-9---9-7----7--------------------------------------7---------------------|
D|-----------10---10-7-10-7-7-7-7-7----7-7-7-7-10-7-10-----------------------| 
A|----------------------------------10---------------------------------------|
E|---------------------------------------------------------------------------|

e|---------------------------------------8-8-8-8-8-7-7-7-7-7-----------------|
B|-----8------8--10-10-10-10-10-10-10-10-------------------------------------|
G|-9-9---9-7-----------------------------------------------------------------|
D|---------------------------------------------------------------------------| 
A|---------------------------------------------------------------------------|
E|---------------------------------------------------------------------------|

e|---------------------------------------------------------------------------|
B|-----8---------------------------------------------------------------------|
G|-9-9---9-7----7--------------------------------------7---------------------|
D|-----------10---10-7-10-7-7-7-7-7----7-7-7-7-10-7-10-----------------------| 
A|----------------------------------10---------------------------------------|
E|---------------------------------------------------------------------------|

e|---------------------------------------8-8-8-8-7-7-------------------------|
B|-----8---------------------------------------------------------------------|
G|-9-9---9-7----7------------------------------------------------------------|
D|-----------10---10-7-10-7-7-7-7-7----7-------------------------------------| 
A|----------------------------------10---------------------------------------|
E|---------------------------------------------------------------------------|

e|---------------------------------------------------------------------------|
B|-----8---------------------------------------8-10-10-10-10-10--------------|
G|-9-9---9-7----7------------------7-7-7-7-7-9-------------------------------|
D|-----------10---10-7-10-10-10-10-------------------------------------------| 
A|---------------------------------------------------------------------------|
E|---------------------------------------------------------------------------|

e|---------------------------------------------------------------------------|
B|-13-13-13-13-13-13-12-12-12-12-12-12-15-15-15-15-15-15---------------------|
G|-------------------------------------------------------14-14-14-14-14-14---|
D|---------------------------------------------------------------------------| (x2)
A|---------------------------------------------------------------------------|
E|---------------------------------------------------------------------------|

e|---------------------------------------------------------------------------|
B|-13-12---13-12--13-12-13-12--13-12--13-12-13-12--13-12--13-12-13-15-15-15--|
G|-------14-----14-----------14-----14-----------14-----14-------------------|
D|---------------------------------------------------------------------------|
A|---------------------------------------------------------------------------|
E|---------------------------------------------------------------------------|

e|---------------------------------------------------------------------------|
B|----13--12--15-------------------------------------------------------------|
G|-14------------12-14-12-14-------------------------------------------------|
D|---------------------------------------------------------------------------|
A|---------------------------------------------------------------------------|
E|---------------------------------------------------------------------------|
            
Hard to play? Try these video lessons and learn fast. | Correct




comments powered by Disqus
↑ Back to top | Tablatures and chords are parodies/interpretations of the original songs. You may use it for private study, scholarship, research or language learning purposes only