» » »

Shooting Star Tabs (ver.4)

Artists:  A B C D E F G H I J K L M N O P Q R S T U V W X Y Z # 

Shooting Star Tabs (ver.4)

Air Traffic
Rating:
0/5 (0 votes)

Hard to play? Try these video lessons and learn fast.
                the guitar tab for shooting star are right but i thought they were to high up the
fret board so i came up with this a bit lower down: 

(riff)

e----8-8-8-8-8-8-8---10-10-10-10-10-10-10----8-8-8-8-8-8-8---------------7----¦
B-10---------------10---------------------10---------------10-10-8-10-10--10-8¦
G-----------------------------------------------------------------------------¦
D-----------------------------------------------------------------------------¦
A-----------------------------------------------------------------------------¦
E-----------------------------------------------------------------------------¦

e----8-8-8-8-8-8-8---10-10-10-10-10-10-10----8-8-8-8-8-8-8---------------7-------¦
B-10---------------10---------------------10---------------10-10-8-10-10--10-8-10¦
G--------------------------------------------------------------------------------¦
D--------------------------------------------------------------------------------¦
A--------------------------------------------------------------------------------¦
E--------------------------------------------------------------------------------¦

(chorus)

e----8-8-8-8-8-8-8---10-10-10-10-10-10-10----8-8-8-8-8-8-8---------------7----¦
B-10---------------10---------------------10---------------10-10-8-10-10--10-8¦
G-----------------------------------------------------------------------------¦
D-----------------------------------------------------------------------------¦
A-----------------------------------------------------------------------------¦
E-----------------------------------------------------------------------------¦
(x2)

e-------------------------8-8-8-8-8-8-8-8-7-7-7-7-7-7-7-7-10-10-10-10-10-10-8-7-¦
B-10-10-10-10-10-10-10-10-------------------------------------------------------¦
G-------------------------------------------------------------------------------¦
D-------------------------------------------------------------------------------¦
A-------------------------------------------------------------------------------¦
E-------------------------------------------------------------------------------¦

e-------------------------8-8-8-8-8-8-8-8-7-7-7-7-7-7-7-7-10-10-10-10-10-10----------¦
B-10-10-10-10-10-10-10-10--------------------------------------------------8-10-8-10-¦
G------------------------------------------------------------------------------------¦
D------------------------------------------------------------------------------------¦
A------------------------------------------------------------------------------------¦
E------------------------------------------------------------------------------------¦

(solo)


e-0-3-0-------------------------------------¦
B------3-1-3-1-1-------------------1-1-3-3-3¦
G-------------2-2--2-2-2-0-2--2-2-2---------¦
D-------------------------------------------¦
A-------------------------------------------¦
E-------------------------------------------¦ (x2)


e-0--3-0--3-3-5-5-5--5-5-5-5-8-8-8--8-8-8-8-7-7-7---¦
B-------3-------------------------------------------¦
G---------------------------------------------------¦
D---------------------------------------------------¦
A---------------------------------------------------¦
E---------------------------------------------------¦

e-0-3-0-------------------------------------¦
B------3-1-3-1-1-------------------1-1-3-3-3¦
G-------------2-2--2-2-2-0-2--2-2-2---------¦
D-------------------------------------------¦
A-------------------------------------------¦
E-------------------------------------------¦

e-0--3-0--3-3-5-5-5--5-5-5-5-8-8-8--8-8-8-8-7-7-7---¦
B-------3-------------------------------------------¦
G---------------------------------------------------¦
D---------------------------------------------------¦
A---------------------------------------------------¦
E---------------------------------------------------¦

e-0-3-0-------------------------------------¦
B------3-1-3-1-1-------------------1-1-3-3-3¦
G-------------2-2--2-2-2-0-2--2-2-2---------¦
D-------------------------------------------¦
A-------------------------------------------¦
E-------------------------------------------¦

e-0-3-0-------------------------8-8-8-8-7-7-7-¦
B------3-1-3-1-1------------------------------¦
G-------------2-2--2-2-2-0-2--2---------------¦
D---------------------------------------------¦
A---------------------------------------------¦
E---------------------------------------------¦
            
Hard to play? Try these video lessons and learn fast. | Correct




comments powered by Disqus
↑ Back to top | Tablatures and chords are parodies/interpretations of the original songs. You may use it for private study, scholarship, research or language learning purposes only