>
 >
Charlotte

Charlotte Guitar Tabs

Air Traffic - Charlotte chords, tabs, tablatures, lyrics

Guitar lessons | Add/correct | Request | Top 50 tabs Artists:  A B C D E F G H I J K L M N O P Q R S T U V W X Y Z 0-9

Charlotte Guitar Tabs – Air Traffic

CD, Sheet music, Poster

Do you like Charlotte? Share with your friends now
Bass TabsBass Tabs v2ChordsTabsTabs v2Ukulele

Intro:

  F#m G#m        D   A  D   A  D
|-9---x--|--xxx--10--5--10--5--10--|
|-10--x--|--xxx--10--5--10--5--10--|
|-11--9--|--xxx--11--6--11--6--11--|
|-11--11-|--xxx--12--7--12--7--12--|    x2
|-9---11-|--xxx--12--7--12--7--12--|
|-x---9--|--xxx--10--5--10--5--10--|

 this is played twice under the guitar lead aswell before the verse

Lead intro solo:

|-x--x--x-----x--x--|-x--x--x--|-x-----x--|
|-x--x--x-----x--x--|-x--x--x--|-x-----x--|
|-14-13-13s14-13-9--|-13s15-9--|-13s15-9--|
|-x--x--x-----x--x--|-x--x--x--|-x-----x--|  x2
|-12-11-11s12-11-7--|-11s12-7--|-11s12-7--|
|-x--x--x--x--x--x--|-x-----x--|-x-----x--|


Verse:

F#m   G#m         D            A
Don't cry, just let it pass you by,

       D        A        D           A
i'll be by your side each and every day.

F#m  G#m   D              A
Let go, you wanna lose control,

      D     A                          C            B
i'll teach you how to roll, you'll never be the ssa--me:

Prechorus:
Gtr 1                Gtr2
 F#m E  C  B          F#m  E  C   B
|-x--x--3--2-|       |-9---7--8---7-|
|-x--x--5--4-|       |-10--9--8---7-|
|-x--1--5--4-|       |-11--9--9---7-|
|-4--2--5--4-|       |-11--9--10--9-|       x2
|-4--2--3--2-|       |-9---7--10--9-|
|-2--0--x--x-|       |-x---x--8---7-|



Chorus:

           F#m   G#m   D                 A
'Cuz i'm - was-sted,  face down on the floor

       D         A       D           A
can't take any more, i gave it all awayyyay,

F#m G#m     D               A
Lately,   i cant find the eyes
 
      D        A      D           A
help me realise that im in love im in

[through chorus gtr 1 plays intro solo]

Break:
F#m                G#m       D   A    D   A   D   A
love_______________ve




Verse 2:

F#m   G#m   D                A   
Lo--sing, im losing all my fame,

    D              A     D             A
i cant stand the days, that im alo____ne

F#m  G#m      D              A
Tell me, do you feel the same?

       D             A       D                      A
and are you glad i came, and can i walk you ho_____me?


Prechorus:
Gtr 1                Gtr2
 F#m E  C  B          F#m  E  C   B
|-x--x--3--2-|       |-9---7--8---7-|
|-x--x--5--4-|       |-10--9--8---7-|
|-x--1--5--4-|       |-11--9--9---7-|
|-4--2--5--4-|       |-11--9--10--9-|       x2
|-4--2--3--2-|       |-9---7--10--9-|
|-2--0--x--x-|       |-x---x--8---7-|



Chorus:

           F#m   G#m   D                 A
'Cuz i'm - was-sted,  face down on the floor

       D         A       D           A
can't take any more, i gave it all awayyyay,

F#m G#m     D               A
Lately,   i cant find the eyes
 
      D        A      D           A
help me realise that im in love im in

[through chorus gtr 1 plays intro solo]


Break 2:

Gtr 1:                 Gtr 2:
  C  G  A#  F           C    G  A# F
|-3--3--1---1-|        |-8---3--6--1-|
|-5--3--3---1-|        |-8---3--6--1-|
|-5--4--3---2-|        |-9---4--7--2-|
|-5--5--3---3-|        |-10--5--8--3-|
|-3--5--1---3-|        |-10--5--8--3-|
|-x--3--x---1-|        |-8---3--6--1-|



C    G     A#  F
your face, my place      x2

third time:
C    G     A#  F         G        [G]/F#m
your face, my place  and i'm________


*pause for cheer*


Gtr 2:
F#m G#m        D   A  D   A  D
|-9---x--|--xxx--10--5--10--5--10--|
|-10--x--|--xxx--10--5--10--5--10--|
|-11--9--|--xxx--11--6--11--6--11--|
|-11--11-|--xxx--12--7--12--7--12--|    x2
|-9---11-|--xxx--12--7--12--7--12--|
|-x---9--|--xxx--10--5--10--5--10--|

Gtr 1:
|-x--x--x-----x--x--|-x--x--x--|-x-----x--|
|-x--x--x-----x--x--|-x--x--x--|-x-----x--|
|-14-13-13s14-13-9--|-13s15-9--|-13s15-9--|
|-x--x--x-----x--x--|-x--x--x--|-x-----x--|  x2
|-12-11-11s12-11-7--|-11s12-7--|-11s12-7--|
|-x--x--x--x--x--x--|-x-----x--|-x-----x--|



thats my first attempt at working out and writing a proper tab so i hope it is alright 

any comments please send to 

thanks xx





Comments


Popular Air Traffic tabs & chords
Charlotte Bass Tabs
Never Even Told Me Her Name Chords
Still In Love Chords
Your Fractured Life Chords
Running Caught Me High Tabs
Shooting Star Tabs
Shooting Star 5 Tabs
Your Fractured Life Tabs
Charlotte Ukulele
Time Goes By Ukulele


Song lyrics



↑ Back to top | Tablatures and chords are parodies/interpretations of the original songs. You may use it for private study, scholarship, research or language learning purposes only
© 2014 AZChords.com Contact us | Privacy policy | DMCA | Add/correct tabs | Request tabs | Top 50 tabs