>
 >
Charlotte 1

Charlotte 1 Guitar Tabs

Air Traffic - Charlotte 1 chords, tabs, tablatures, lyrics

Guitar lessons | Add/correct | Request | Top 50 tabs Artists:  A B C D E F G H I J K L M N O P Q R S T U V W X Y Z 0-9

Charlotte 1 Guitar Tabs – Air Traffic

CD, Sheet music, Poster

Do you like Charlotte 1? Share with your friends now
Bass TabsBass Tabs v2ChordsTabsTabs v2Ukulele
-------------------------------------------------------------------------------
                             Charlotte - Air Traffic
-------------------------------------------------------------------------------


hi this is my first tab and that's not because i'm a beginner but because i was just to 
to write one .. but when i saw that there wasn't a tab of the way i play this song i 
to write one

i don't tell you that other tabs aren't good ! i just tell you that mine is 100% correct

Tuning:standard

intro
G|---------------------------------------------------------------------------|
D|--2/////9*--999-9999-------------------------------------------------------|
A|---------------------------------------------------------------------------|
E|---------------------------------------------------------------------------|

verse 1 x2
G|---------------------------------------------------------------------------|
D|---------------------------------------------------------------------------|
A|--2-x-x-99--9-10-9-5-999-10-9-5--999-10-9-5--------------------------------|
E|---------------------------------------------------------------------------|

verse 2  2x                    first time:     second time:
G|-----------------------------|----------|----------------------------------|
D|-----------------------------|----------|----------------------------------|
A|-9-9-x-----------------------|----------|----------------------------------|
E|-------9-99-10-55-xxx-10-55-x|xx-10-55--|-x-8888-7777----------------------|


thingy number 3 1x
G|---------------------------------------------------------------------------|
D|---------------------------------------------------------------------------|
A|---------------------------------------------------------------------------|
E|-222-222-000-000-888-888-777-77-222-222-000-0077-777-7-8888-88-------------|


thingy number 4 4x
G|---------------------------|------------------------------------------------|
D|---------------------------|------------------------------------------------|
A|-33-0----111-0-------------|------------------------------------------------|
E|------33-------111-0-------|33333333-99999-*silence*------------------------|

| /  slide up
| \  slide down
| h  hammer-on
| p  pull-off
| ~  vibrato
| +  harmonic
| *  Let ring
| x  Mute note
===============================================================================





Comments


Popular Air Traffic tabs & chords
Shooting Star Bass Tabs
Empty Space Chords
No More Running Away 2 Chords
Shooting Star 2 Chords
Still In Love Chords
Charlotte Tabs
Running Caught Me High Tabs
Shooting Star 3 Tabs
Ambulate Ukulele
I Like That Ukulele


Song lyrics



↑ Back to top | Tablatures and chords are parodies/interpretations of the original songs. You may use it for private study, scholarship, research or language learning purposes only
© 2014 AZChords.com Contact us | Privacy policy | DMCA | Add/correct tabs | Request tabs | Top 50 tabs