» » »

Air Traffic, Charlotte Bass tabs (ver.1)

Artists:  A B C D E F G H I J K L M N O P Q R S T U V W X Y Z # 

Charlotte Bass tabs (ver.1)

Air Traffic Tabs
Rating:
4/5 (5 votes)
Charlotte lessons Tabs too difficult? Try these video lessons and learn fast
                G|--------------------------------------------------------------|
D|--------------------------------------------------------------|
A|-9-9----------------------------------------------------------|     x4
E|-----9-9-9--10-10-10-5-5-5-10-10-10-5-5-5-10-10-10-5-5-5------|

G|---------------------------------------------------|
D|---------------------------------------------------|
A|-----------------------3-3-3--3-3-2-2-2--2-2-------|      x2
E|-3-3-3--3-3-2-2-2--2-2-----------------------------|

G|--------------------------------------------------------------|
D|--------------------------------------------------------------|
A|-9-9----------------------------------------------------------|     x2
E|-----9-9-9--10-10-10-5-5-5-10-10-10-5-5-5-10-10-10-5-5-5------|

[Wait For Guitar x2]

G|--------------------------------------------------------------|
D|--------------------------------------------------------------|
A|-9-9----------------------------------------------------------|     x2
E|-----9-9-9--10-10-10-5-5-5-10-10-10-5-5-5-10-10-10-5-5-5------|

G|---------------------------------------------------|
D|---------------------------------------------------|
A|-----------------------3-3-3--3-3-2-2-2--2-2-------|      x2
E|-3-3-3--3-3-2-2-2--2-2-----------------------------|

G|--------------------------------------------------------------|
D|--------------------------------------------------------------|
A|-9-9----------------------------------------------------------|     x2
E|-----9-9-9--10-10-10-5-5-5-10-10-10-5-5-5-10-10-10-5-5-5------|

G|--------------------------|
D|--------------------------|
A|-3-3-------1-1------------|     x3
E|-----3-3-3-----1-1-1------|


G|-------------------------------------------------|
D|-------------------------------------------------|
A|-3-3-------1-1-----------------------------------|
E|-----3-3-3-----1-1-1-3-3-3-3-3-3-3-3-3-3-3-3-3-3-|


G|--------------------------------------------------------------|
D|--------------------------------------------------------------|
A|-9-9----------------------------------------------------------|     x2
E|-----9-9-9--10-10-10-5-5-5-10-10-10-5-5-5-10-10-10-5-5-5------|

G|-----------------|
D|-----------------|
A|-----------------|     x1
E|-9----9-9-9------|

I know its abit sketchy in some parts :] but its my first bass tab tbh so, be nice, yeah?
If your not satisfied then you can always do your own :]].
            

comments powered by Disqus
↑ Back to top | Air Traffic Bass for Charlotte. Lyrics for acoustic guitar and electric guitar. Tablatures and chords are parodies/interpretations of the original songs. You may use it for private study, scholarship, research or language learning purposes only