» » »

Aiden, Hysteria Tabs (ver.2)

Artists:  A B C D E F G H I J K L M N O P Q R S T U V W X Y Z # 

Hysteria Tabs (ver.2)

Aiden Tabs
 Rating:
4/5 (4 votes)
Hysteria lessons Tabs too difficult? Try these video lessons and learn fast
                -----------------------------------------------------------------------------
                             HYSTERIA TAB - Aiden
-----------------------------------------------------------------------------

Tuning: Drop D

This is a pretty banging song.  (Banging means good.) It has a lot of meaning and
strong lyrics and a really awesome solo, which I will attempt to tab.  I will only tab 
out the parts that I hear. I am sure there is a back up/rhythm guitar   Here goes it!

The opening melody is just a D minor riff with the 5th, 6th and 7th of a D minor scale.

e|---6-----5-----8-----5-----6---5----|
B|-3---3-3---3-3---3-3---3-3---3---3--|
G|------------------------------------|
D|------------------------------------|
A|------------------------------------|
D|------------------------------------|

e|-------------------------|
B|-------------------------|
G|-------------------------|
D|--5-5--3-5-5--3-5-5--3-5-|
A|--5-5--3-5-5--3-5-5--3-5-|
D|--5-5--3-5-5--3-5-5--3-5-|

Love: How they burn your...
e|-------------------------------------|
B|-------------------------------------|
G|-------------------------------------|
D|-5-5-5-5-5-5-5-5-5-5-5-5-5-5-5-5-5-5-|
A|-5-5-5-5-5-5-5-5-5-5-5-5-5-5-5-5-5-5-|
D|-5-5-5-5-5-5-5-5-5-5-5-5-5-5-5-5-5-5-| (yadda yadda yadda)

Filling Coffers with your grief
e|---------------------------------|
B|---------------------------------|
G|---------------------------------|
D|-1-1-1-1-1-1-1-1-1-1-1-1-1-1-1-1-|
A|-1-1-1-1-1-1-1-1-1-1-1-1-1-1-1-1-|
D|-1-1-1-1-1-1-1-1-1-1-1-1-1-1-1-1-|

Filling coffins with your misery
e|---------------------------------|
B|---------------------------------|
G|-3-3-3-3-3-3-3-3-5-5-5-5-5-5-5-5-|
D|-3-3-3-3-3-3-3-3-5-5-5-5-5-5-5-5-|
A|-1-1-1-1-1-1-1-1-3-3-3-3-3-3-3-3-|
D|---------------------------------|

Faith holding outright criminals safe, This is just the world we live
e|-------------------------------------|
B|-------------------------------------|
G|-------------------------------------|
D|-5-5-5-5-5-5-5-5-5-5-5-5-5-5-5-5-5-5-|
A|-5-5-5-5-5-5-5-5-5-5-5-5-5-5-5-5-5-5-|
D|-5-5-5-5-5-5-5-5-5-5-5-5-5-5-5-5-5-5-|

IN. Can you justify the
e|---------------------------------|
B|---------------------------------|
G|---------------------------------|
D|-1-1-1-1-1-1-1-1-1-1-1-1-1-1-1-1-|
A|-1-1-1-1-1-1-1-1-1-1-1-1-1-1-1-1-|
D|-1-1-1-1-1-1-1-1-1-1-1-1-1-1-1-1-|

PAIN. The death of fiction:
e|---------------------------------|
B|---------------------------------|
G|-3-3-3-3-3-3-3-3-5-5-5-5-5-5-5-5-|
D|-3-3-3-3-3-3-3-3-5-5-5-5-5-5-5-5-|
A|-1-1-1-1-1-1-1-1-3-3-3-3-3-3-3-3-|
D|---------------------------------|

No tab for: Will save us all.

Continue for:

Hysteria (We live, We die)
e|-----------------------------------------------------------------|
B|-----------------------------------------------------------------|
G|-----------------------------------------------------------------|
D|-5-5-5-5-5-5-5-5-8-8-8-8-8-8-8-8-3-3-3-3-3-3-3-3-1-1-1-1-1-1-1-1-|
A|-5-5-5-5-5-5-5-5-8-8-8-8-8-8-8-8-3-3-3-3-3-3-3-3-1-1-1-1-1-1-1-1-|
D|-5-5-5-5-5-5-5-5-8-8-8-8-8-8-8-8-3-3-3-3-3-3-3-3-1-1-1-1-1-1-1-1-|

I live, I live...
e|-----------------------------------------------------------------|
B|-----------------------------------------------------------------|
G|-----------------------------------------------------------------|
D|-5-5-5-5-5-5-5-5-3-3-3-3-3-3-3-3-1-1-1-1-1-1-1-1-1-1-1-1-1-1-1-1-|
A|-5-5-5-5-5-5-5-5-3-3-3-3-3-3-3-3-1-1-1-1-1-1-1-1-1-1-1-1-1-1-1-1-|
D|-5-5-5-5-5-5-5-5-3-3-3-3-3-3-3-3-1-1-1-1-1-1-1-1-1-1-1-1-1-1-1-1-|

Next, just repeat the intro:
e|---6-----5-----8-----5-----6---5----|
B|-3---3-3---3-3---3-3---3-3---3---3--|
G|------------------------------------|
D|------------------------------------|
A|------------------------------------|
D|------------------------------------|

Wait supporting my outright genocide
Hate let us all disseminate
e|-------------------------------------|
B|-------------------------------------|
G|-------------------------------------|
D|-5-5-5-5-5-5-5-5-5-5-5-5-5-5-5-5-5-5-|
A|-5-5-5-5-5-5-5-5-5-5-5-5-5-5-5-5-5-5-|
D|-5-5-5-5-5-5-5-5-5-5-5-5-5-5-5-5-5-5-|

A message to your herd
e|---------------------------------|
B|---------------------------------|
G|---------------------------------|
D|-1-1-1-1-1-1-1-1-1-1-1-1-1-1-1-1-|
A|-1-1-1-1-1-1-1-1-1-1-1-1-1-1-1-1-|
D|-1-1-1-1-1-1-1-1-1-1-1-1-1-1-1-1-|

Our voices will be heard
e|---------------------------------|
B|---------------------------------|
G|-3-3-3-3-3-3-3-3-5-5-5-5-5-5-5-5-|
D|-3-3-3-3-3-3-3-3-5-5-5-5-5-5-5-5-|
A|-1-1-1-1-1-1-1-1-3-3-3-3-3-3-3-3-|
D|---------------------------------|

Now faith, is a question you can choose
Faith, whether Christian, Muslim, Jew
e|-------------------------------------|
B|-------------------------------------|
G|-------------------------------------|
D|-5-5-5-5-5-5-5-5-5-5-5-5-5-5-5-5-5-5-|
A|-5-5-5-5-5-5-5-5-5-5-5-5-5-5-5-5-5-5-|
D|-5-5-5-5-5-5-5-5-5-5-5-5-5-5-5-5-5-5-|

Still you all distort the
TRUTH
e|---------------------------------|
B|---------------------------------|
G|---------------------------------|
D|-1-1-1-1-1-1-1-1-1-1-1-1-1-1-1-1-|
A|-1-1-1-1-1-1-1-1-1-1-1-1-1-1-1-1-|
D|-1-1-1-1-1-1-1-1-1-1-1-1-1-1-1-1-|

The death of fiction
e|---------------------------------|
B|---------------------------------|
G|-3-3-3-3-3-3-3-3-5-5-5-5-5-5-5-5-|
D|-3-3-3-3-3-3-3-3-5-5-5-5-5-5-5-5-|
A|-1-1-1-1-1-1-1-1-3-3-3-3-3-3-3-3-|
D|---------------------------------|

No tab for: Will save us all (still)

Continue (again) for:
Hysteria (we live)
e|-----------------------------------------------------------------|
B|-----------------------------------------------------------------|
G|-----------------------------------------------------------------|
D|-5-5-5-5-5-5-5-5-8-8-8-8-8-8-8-8-3-3-3-3-3-3-3-3-1-1-1-1-1-1-1-1-|
A|-5-5-5-5-5-5-5-5-8-8-8-8-8-8-8-8-3-3-3-3-3-3-3-3-1-1-1-1-1-1-1-1-|
D|-5-5-5-5-5-5-5-5-8-8-8-8-8-8-8-8-3-3-3-3-3-3-3-3-1-1-1-1-1-1-1-1-|

I live, I live...
e|-----------------------------------------------------------------|
B|-----------------------------------------------------------------|
G|-----------------------------------------------------------------|
D|-5-5-5-5-5-5-5-5-3-3-3-3-3-3-3-3-1-1-1-1-1-1-1-1-1-1-1-1-1-1-1-1-|
A|-5-5-5-5-5-5-5-5-3-3-3-3-3-3-3-3-1-1-1-1-1-1-1-1-1-1-1-1-1-1-1-1-|
D|-5-5-5-5-5-5-5-5-3-3-3-3-3-3-3-3-1-1-1-1-1-1-1-1-1-1-1-1-1-1-1-1-|

(Repeat the Chorus twice this time)

Bridge, kinda.

e|---------|
B|---------|
G|---------|
D|-5-3-1-0-|
A|---------|
D|-5-3-1-0-|

Searching for the answers are
You asking all the questions?
e|
B|
G|-5-5-5-5-5-5-5-5-8-8-8-8-8-8-8-8-----------------|
D|-5-5-5-5-5-5-5-5-8-8-8-8-8-8-8-8-5-5-5-5-5-5-5-5-|
A|-3-3-3-3-3-3-3-3-6-6-6-6-6-6-6-6-5-5-5-5-5-5-5-5-|
D|---------------------------------5-5-5-5-5-5-5-5-|

Human evolution is the only...
e|-----------------------------------------------------------------|
B|-----------------------------------------------------------------|
G|-5-5-5-5-5-5-5-5-8-8-8-8-8-8-8-8---------------------------------|
D|-5-5-5-5-5-5-5-5-8-8-8-8-8-8-8-8-3-3-3-3-3-3-3-3-4-4-4-4-5-5-5-5-|
A|-3-3-3-3-3-3-3-3-6-6-6-6-6-6-6-6-3-3-3-3-3-3-3-3-4-4-4-4-5-5-5-5-|
D|---------------------------------3-3-3-3-3-3-3-3-4-4-4-4-5-5-5-5-|

Solo (this is my rough version of it)
e|---------------------------------------------------|
B|---------------------------------------------------|
G|---------------------------------------------------|
D|----------------------3-4-5-7-8-10~10-12-10--1/12--|
A|-5~3/5--3-1-0~0-5-3-5------------------------------|
D|---------------------------------------------------|

This next part is like the intro just more frets up
e|---------------------------------------------------------|
B|---------------------------------------------------------|
G|----15-------14-------17-------10-12-12-12-12-10-7-10-7~-|
D|-12----12-12----12-12----12-12---------------------------|
A|---------------------------------------------------------|
D|---------------------------------------------------------|

This next bit is fast and awesome
e|------------------------------|
B|------------------------------|
G|-10p8p7--------10p8p7---------|
D|--------10p8p7--------10p8p7--|
A|------------------------------|
D|------------------------------| Repeat this a few times.

This next part is just hard to hear
e|-----------------------|
B|-----------------------|
G|-----------------------|
D|-8-7-------------------|
A|-----8-6-5-3-1-0-------|
D|-----------------3/4/5-|

Now just repeat the chorus

Hysteria (we live)
e|-----------------------------------------------------------------|
B|-----------------------------------------------------------------|
G|-----------------------------------------------------------------|
D|-5-5-5-5-5-5-5-5-8-8-8-8-8-8-8-8-3-3-3-3-3-3-3-3-1-1-1-1-1-1-1-1-|
A|-5-5-5-5-5-5-5-5-8-8-8-8-8-8-8-8-3-3-3-3-3-3-3-3-1-1-1-1-1-1-1-1-|
D|-5-5-5-5-5-5-5-5-8-8-8-8-8-8-8-8-3-3-3-3-3-3-3-3-1-1-1-1-1-1-1-1-|

I live, I live...
e|-----------------------------------------------------------------|
B|-----------------------------------------------------------------|
G|-----------------------------------------------------------------|
D|-5-5-5-5-5-5-5-5-3-3-3-3-3-3-3-3-1-1-1-1-1-1-1-1-1-1-1-1-1-1-1-1-|
A|-5-5-5-5-5-5-5-5-3-3-3-3-3-3-3-3-1-1-1-1-1-1-1-1-1-1-1-1-1-1-1-1-|
D|-5-5-5-5-5-5-5-5-3-3-3-3-3-3-3-3-1-1-1-1-1-1-1-1-1-1-1-1-1-1-1-1-|

Then repeat it again!


Hysteria (we live)
e|-----------------------------------------------------------------|
B|-----------------------------------------------------------------|
G|-----------------------------------------------------------------|
D|-5-5-5-5-5-5-5-5-8-8-8-8-8-8-8-8-3-3-3-3-3-3-3-3-1-1-1-1-1-1-1-1-|
A|-5-5-5-5-5-5-5-5-8-8-8-8-8-8-8-8-3-3-3-3-3-3-3-3-1-1-1-1-1-1-1-1-|
D|-5-5-5-5-5-5-5-5-8-8-8-8-8-8-8-8-3-3-3-3-3-3-3-3-1-1-1-1-1-1-1-1-|

I live, I live...
e|-----------------------------------------------------------------|
B|-----------------------------------------------------------------|
G|-----------------------------------------------------------------|
D|-5-5-5-5-5-5-5-5-3-3-3-3-3-3-3-3-1-1-1-1-1-1-1-1-1-1-1-1-1-1-1-1-|
A|-5-5-5-5-5-5-5-5-3-3-3-3-3-3-3-3-1-1-1-1-1-1-1-1-1-1-1-1-1-1-1-1-|
D|-5-5-5-5-5-5-5-5-3-3-3-3-3-3-3-3-1-1-1-1-1-1-1-1-1-1-1-1-1-1-1-1-|

Then just repeat the intro and slow down towards the end of the song.

e|---6-----5-----8-----5-----6---5----|
B|-3---3-3---3-3---3-3---3-3---3---3--|
G|------------------------------------|
D|------------------------------------|
A|------------------------------------|
D|------------------------------------|

That's it, kinda. Don't rely on the solo, I made this tab by ear.
            
Submit corrections

comments powered by Disqus
↑ Back to top | Aiden Tabs for Hysteria. Lyrics for acoustic guitar and electric guitar. Tablatures and chords are parodies/interpretations of the original songs. You may use it for private study, scholarship, research or language learning purposes only