» » »

Hysteria Tabs (ver.1)

Artists:  A B C D E F G H I J K L M N O P Q R S T U V W X Y Z # 

Hysteria Tabs (ver.1)

Aiden
Rating:
4/5 (3 votes)

Hard to play? Try these video lessons and learn fast.
                Pretty sure this is all right, but let me know if you have any corrections, etc. 

Intro/Main Riff: (x4)
D|-0-8-0-0-7-0-0-10-0-0-7-0-0-8-0-7-0-(Last time add on an 8 after the 0)-|
A|------------------------------------------------------------------------|
F|------------------------------------------------------------------------|
C|------------------------------------------------------------------------|
G|------------------------------------------------------------------------|
C|------------------------------------------------------------------------|

Verse:
D|-------------------------------------------------------------|
A|-------------------------------------------------------------|
F|-------------------------------------------------------------|
C|--7-----3-----10----12-----7-----3-----10----12----14-14-14--|
G|--7-x24-3-x16-10-x8-12-x8--7-x24-3-x16-10-x8-12-x8-14-14-14--|
C|--7-----3-----10----12-----7-----3-----10----12----14-14-14--|
 PM|---------------------------------------------|

Chorus:
D|------------------------------------------------------|
A|------------------------------------------------------|
F|------------------------------------------------------|
C|--7----10----5----3----7----5----3--------------------|
G|--7-x8-10-x8-5-x8-3-x8-7-x8-5-x8-3-x16----------------|
C|--7----10----5----3----7----5----3--------------------|

Repeat Intro/Main Riff x4

Repeat Verse

Repeat Chorus x2

Bridge:
D|------------------------------------------------------------|
A|------------------------------------------------------------|
F|-----------7----10----------7----10-------------------------|
C|-----------7-x8-10-x8-7-----7-x8-10-x8-5--------------------|
G|-----------5----8-----7-x16-5----8-----5-x16----------------|
C|--7-5-3-2-------------7----------------5--------------------|
                                      PM|-|   

Solo:
D|------------------------------------------------------------|
A|------------------------------------------------------------|
F|------------------------------------------------------------|
C|---------------------------------1s7-9 10-12~-12s14s12~-----|
G|-7~-5s7-5-3-2b-2h3-3-2h3h5p3-3~-----------------------------|
C|------------------------------------------------------------|

D|-0-8-0-0-7-0-0-10-0-0-7-0-0-8-0-7-0-------------------|
A|------------------------------------8h10-10-8s5-5-----|
F|------------------------------------------------------|
C|------------------------------------------------------|
G|------------------------------------------------------|
C|------------------------------------------------------|

D|------------------------------------------------------------|
A|--8p6p5-------8p6p5-------8p6p5------------------------10~--|
F|--------7p5p4-------7p5p4---------2h3-3h5-5h7-7h9-7---------|
C|------------------------------------------------------------|
G|------------------------------------------------------------|
C|------------------------------------------------------------|

Repeat Chorus x 2
Repeat Intro/Main Riff
(on the last time you play the main riff, slow it down at the last few notes)
            
Hard to play? Try these video lessons and learn fast. | Correct




comments powered by Disqus
↑ Back to top | Tablatures and chords are parodies/interpretations of the original songs. You may use it for private study, scholarship, research or language learning purposes only