>
 >
Hysteria 2

Hysteria 2 Guitar Tabs

Aiden - Hysteria 2 chords, tabs, tablatures, lyrics

Guitar lessons | Add/correct | Request | Top 50 tabs Artists:  A B C D E F G H I J K L M N O P Q R S T U V W X Y Z 0-9

Hysteria 2 Guitar Tabs – Aiden

CD, Sheet music, Poster

Do you like Hysteria 2? Share with your friends now
TabsTabs v2Tabs v3
-----------------------------------------------------------------------------
                             HYSTERIA TAB - Aiden
-----------------------------------------------------------------------------

Tuning: Drop D (Different) DADGBd

There were a few comments from my previous version of this tab.  I'm going to try and 
tab this out again with an improved solo...sort of.  I will also tab out rhythm guitar 
(Though it's only for the intro and solo)

Intro

d|-0-8-0-0-7-0-0-10-0-0-7-0-0-8-0-7-|
B|----------------------------------|
G|----------------------------------|
D|----------------------------------|
A|----------------------------------|
D|----------------------------------|

Rhythm
d|--------------------------------|
B|--------------------------------|
G|-------78888888833333332--------|
D|55555557888888883333333233334444|
A|55555555666666661111111033334444|
D|5555555-----------------33334444|

Pre-verse Both Guitars

d|-------------------------|
B|-------------------------|
G|-------------------------|
D|--5-5--3-5-5--3-5-5--3-5-|
A|--5-5--3-5-5--3-5-5--3-5-|
D|--5-5--3-5-5--3-5-5--3-5-|

Verse Both Guitars
Palm muted

Love: How they burn your...
d|-------------------------------------|
B|-------------------------------------|
G|-------------------------------------|
D|-5-5-5-5-5-5-5-5-5-5-5-5-5-5-5-5-5-5-|
A|-5-5-5-5-5-5-5-5-5-5-5-5-5-5-5-5-5-5-|
D|-5-5-5-5-5-5-5-5-5-5-5-5-5-5-5-5-5-5-| (yadda yadda yadda)

Filling Coffers with your grief
d|---------------------------------|
B|---------------------------------|
G|---------------------------------|
D|-1-1-1-1-1-1-1-1-1-1-1-1-1-1-1-1-|
A|-1-1-1-1-1-1-1-1-1-1-1-1-1-1-1-1-|
D|-1-1-1-1-1-1-1-1-1-1-1-1-1-1-1-1-|

Filling coffins with your misery
d|---------------------------------|
B|---------------------------------|
G|-3-3-3-3-3-3-3-3-5-5-5-5-5-5-5-5-|
D|-3-3-3-3-3-3-3-3-5-5-5-5-5-5-5-5-|
A|-1-1-1-1-1-1-1-1-3-3-3-3-3-3-3-3-|
D|---------------------------------|

Faith holding outright criminals safe, This is just the world we live
d|-------------------------------------|
B|-------------------------------------|
G|-------------------------------------|
D|-5-5-5-5-5-5-5-5-5-5-5-5-5-5-5-5-5-5-|
A|-5-5-5-5-5-5-5-5-5-5-5-5-5-5-5-5-5-5-|
D|-5-5-5-5-5-5-5-5-5-5-5-5-5-5-5-5-5-5-|

IN. Can you justify the
d|---------------------------------|
B|---------------------------------|
G|---------------------------------|
D|-1-1-1-1-1-1-1-1-1-1-1-1-1-1-1-1-|
A|-1-1-1-1-1-1-1-1-1-1-1-1-1-1-1-1-|
D|-1-1-1-1-1-1-1-1-1-1-1-1-1-1-1-1-|

PAIN. The death of fiction:
d|---------------------------------|
B|---------------------------------|
G|-3-3-3-3-3-3-3-3-5-5-5-5-5-5-5-5-|
D|-3-3-3-3-3-3-3-3-5-5-5-5-5-5-5-5-|
A|-1-1-1-1-1-1-1-1-3-3-3-3-3-3-3-3-|
D|---------------------------------|

STILL no tab for: Will save us all.

Chorus Both Guitars

Hysteria (We live, We die)
d|-----------------------------------------------------------------|
B|-----------------------------------------------------------------|
G|-----------------------------------------------------------------|
D|-5-5-5-5-5-5-5-5-8-8-8-8-8-8-8-8-3-3-3-3-3-3-3-3-1-1-1-1-1-1-1-1-|
A|-5-5-5-5-5-5-5-5-8-8-8-8-8-8-8-8-3-3-3-3-3-3-3-3-1-1-1-1-1-1-1-1-|
D|-5-5-5-5-5-5-5-5-8-8-8-8-8-8-8-8-3-3-3-3-3-3-3-3-1-1-1-1-1-1-1-1-|

I live, I live...
d|-----------------------------------------------------------------|
B|-----------------------------------------------------------------|
G|-----------------------------------------------------------------|
D|-5-5-5-5-5-5-5-5-3-3-3-3-3-3-3-3-1-1-1-1-1-1-1-1-1-1-1-1-1-1-1-1-|
A|-5-5-5-5-5-5-5-5-3-3-3-3-3-3-3-3-1-1-1-1-1-1-1-1-1-1-1-1-1-1-1-1-|
D|-5-5-5-5-5-5-5-5-3-3-3-3-3-3-3-3-1-1-1-1-1-1-1-1-1-1-1-1-1-1-1-1-|

Repeat Intro for both guitars

2nd Verse

Wait supporting my outright genocide
Hate let us all disseminate
d|-------------------------------------|
B|-------------------------------------|
G|-------------------------------------|
D|-5-5-5-5-5-5-5-5-5-5-5-5-5-5-5-5-5-5-|
A|-5-5-5-5-5-5-5-5-5-5-5-5-5-5-5-5-5-5-|
D|-5-5-5-5-5-5-5-5-5-5-5-5-5-5-5-5-5-5-|

A message to your herd
d|---------------------------------|
B|---------------------------------|
G|---------------------------------|
D|-1-1-1-1-1-1-1-1-1-1-1-1-1-1-1-1-|
A|-1-1-1-1-1-1-1-1-1-1-1-1-1-1-1-1-|
D|-1-1-1-1-1-1-1-1-1-1-1-1-1-1-1-1-|

Our voices will be heard
d|---------------------------------|
B|---------------------------------|
G|-3-3-3-3-3-3-3-3-5-5-5-5-5-5-5-5-|
D|-3-3-3-3-3-3-3-3-5-5-5-5-5-5-5-5-|
A|-1-1-1-1-1-1-1-1-3-3-3-3-3-3-3-3-|
D|---------------------------------|

Now faith, is a question you can choose
Faith, whether Christian, Muslim, Jew
d|-------------------------------------|
B|-------------------------------------|
G|-------------------------------------|
D|-5-5-5-5-5-5-5-5-5-5-5-5-5-5-5-5-5-5-|
A|-5-5-5-5-5-5-5-5-5-5-5-5-5-5-5-5-5-5-|
D|-5-5-5-5-5-5-5-5-5-5-5-5-5-5-5-5-5-5-|

Still you all distort the
TRUTH
d|---------------------------------|
B|---------------------------------|
G|---------------------------------|
D|-1-1-1-1-1-1-1-1-1-1-1-1-1-1-1-1-|
A|-1-1-1-1-1-1-1-1-1-1-1-1-1-1-1-1-|
D|-1-1-1-1-1-1-1-1-1-1-1-1-1-1-1-1-|

The death of fiction
d|---------------------------------|
B|---------------------------------|
G|-3-3-3-3-3-3-3-3-5-5-5-5-5-5-5-5-|
D|-3-3-3-3-3-3-3-3-5-5-5-5-5-5-5-5-|
A|-1-1-1-1-1-1-1-1-3-3-3-3-3-3-3-3-|
D|---------------------------------|

No tab for: Will save us all (still) [again]

Chours Both Guitars (Repeat two times)

Bridge
Bridge, kinda.

Guitar 2
d|---------|
B|---------|
G|---------|
D|-5-3-1-0-|
A|---------|
D|-5-3-1-0-|

(both guitars)
Searching for the answers are
You asking all the questions?
d|-------------------------------------------------|
B|-------------------------------------------------|
G|-5-5-5-5-5-5-5-5-8-8-8-8-8-8-8-8-----------------|
D|-5-5-5-5-5-5-5-5-8-8-8-8-8-8-8-8-5-5-5-5-5-5-5-5-|
A|-3-3-3-3-3-3-3-3-6-6-6-6-6-6-6-6-5-5-5-5-5-5-5-5-|
D|---------------------------------5-5-5-5-5-5-5-5-|

Human evolution is the only...
d|-----------------------------------------------------------------|
B|-----------------------------------------------------------------|
G|-5-5-5-5-5-5-5-5-8-8-8-8-8-8-8-8---------------------------------|
D|-5-5-5-5-5-5-5-5-8-8-8-8-8-8-8-8-3-3-3-3-3-3-3-3-4-4-4-4-5-5-5-5-|
A|-3-3-3-3-3-3-3-3-6-6-6-6-6-6-6-6-3-3-3-3-3-3-3-3-4-4-4-4-5-5-5-5-|
D|---------------------------------3-3-3-3-3-3-3-3-4-4-4-4-5-5-5-5-|
                                   . . . . . . . .

Solo
Guitar 1
d|---------------------------------------------------|
B|---------------------------------------------------|
G|---------------------------------------------------|
D|----------------------3-4-5-7-8-10~10-12-10--1/12--|
A|-5~3/5--3-1-0~0-5-3-5------------------------------|
D|---------------------------------------------------|

This next part is like the intro just more frets up
d|---------------------------------------------------------|
B|---------------------------------------------------------|
G|----15-------14-------17-------10-12-12-12-12-10-7-10-7~-|
D|-12----12-12----12-12----12-12---------------------------|
A|---------------------------------------------------------|
D|---------------------------------------------------------|

This next bit is fast and awesome
d|------------------------------|
B|------------------------------|
G|-10p8p7--------10p8p7---------|
D|--------10p8p7--------10p8p7--|
A|------------------------------|
D|------------------------------|

d|--------------------|
B|--------------------|
G|--------------------|
D|7/8-8/10-10/12h1p12-|
A|--------------------|
D|--------------------|

Solo Guitar 2: Repeat Chorus

Both guitars repeat chorus again

Repeat Outro then slow down.

There you have it.  I hope this one is better.





Comments


Popular Aiden tabs & chords
Bridge Of Reason Shore Of Faith Intro Tabs
I Set My Friends On Fire 3 Tabs
Last Sunrise 3 Tabs
Looking Glass Eyes Tabs
Moment 3 Tabs
Silent Eyes Tabs
We Sleep Forever 2 Tabs
Cry Little Sister Ukulele
She Will Love You Ukulele
Teenage Queen Ukulele


Song lyrics



↑ Back to top | Tablatures and chords are parodies/interpretations of the original songs. You may use it for private study, scholarship, research or language learning purposes only
© 2014 AZChords.com Contact us | Privacy policy | DMCA | Add/correct tabs | Request tabs | Top 50 tabs