» » »

Aerosmith, Walk This Way Bass tabs (ver.2)

Artists:  A B C D E F G H I J K L M N O P Q R S T U V W X Y Z # 

Walk This Way Bass tabs (ver.2)

Aerosmith Tabs
 Rating:
4/5 (4 votes)
Walk This Way lessons Tabs too difficult? Try these video lessons and learn fast
1
                This should be pretty much right, it sounds right to me.

Intro/Chorus
G--------------------------------------------|
D--------2--------------------2--------------|
A--0-1-2--------------0-1-2----------2-1-0---|
E--------------0---------------0---------3---|

G------------------------------------------|
D--------2----2-1-0------------------------|
A-------------------2-1-0------------------|
E----0--------------------3----0--12/------|

Bass Solo
G-----------------------------------------------|
D-----------------------------------------------|
A----7-7--5-6-7-7--5-6----7---------------------|
E------------------------------0-3-5------------|

G------------------------------------------------------------|
D------------------------------------------------------------|
A------5-6-7---------------------7------------7------------7-|
E----7--------------0----5-6-7-----0-0--5-6-7---0-0--5-6-7---|

G---------------------------------------------------------|
D-------------------------------------------------------2-|
A-------------7-7--5-6---7-6-5--------------------0-1-2---|
E----0--0--0--------------------7-6-5/3-0----0------------|

Then play through the Intro/chorus twice and it should be over.
            
Submit corrections

comments powered by Disqus
↑ Back to top | Aerosmith Bass for Walk This Way. Lyrics for acoustic guitar and electric guitar. 1 Tablatures and chords are parodies/interpretations of the original songs. You may use it for private study, scholarship, research or language learning purposes only