» » »

Aerosmith, Walk This Way Tabs (ver.3)

Artists:  A B C D E F G H I J K L M N O P Q R S T U V W X Y Z # 

Walk This Way Tabs (ver.3)

Aerosmith Tabs
Rating:
0/5 (0 votes)
Hard to play? Try these video lessons and learn fast.
                aerosmith
walk this way
standard tuning 
this was the easiest song i have tabbed so far
                          _________________________ ________________________
intro                    | 1                       |2                       |
e|-----------------------|-------------------------|------------------------|
b|-----------------------|-------------------------|----------------------2-|
g|-----------------------|-------------------------|----------------------2-|
d|--------2---------2----|------2--------2-------2-|--------2---------2---2-|
a|-0-1-2-----0-1-2-------|0-1-2---0-1-2------------|-0-1-2-----0-1-2------0-|
e|---------------------0-|------------------3^0----|------------------------|


verse
e|--------------------------------------------|
b|--------------------------------------------|
g|--------------------------------------------|
d|-----------------------10------------10--10-|
a|10101010--10-12^10-10------10-10-13--12--10-|
e|-8-8-8-8------------8-----------------------|
play seven times
chorus
e|-------------|-----11-11-11-|
b|-10-10-10----|-----10-10-10-|
g|--8--8--8----|--------------|
d|-------------|--------------|
a|-------------|--------------|
e|-------------|--------------|
play twice

outro
e--------------------------|-------------------------|
b--------------------------|-----------------------2-|
g--------------------------|-----------------------2-|
d---------2---------2------|---------2---------2---2-|
a------------0-1-2---------|------------0-1-2------0-|
e-0--3^4---------------0-0-|-0--3^4------------------|

thats it
            

comments powered by Disqus
↑ Back to top | Aerosmith Tabs for Walk This Way. Lyrics for acoustic guitar and electric guitar. Tablatures and chords are parodies/interpretations of the original songs. You may use it for private study, scholarship, research or language learning purposes only