» » »

Season Of Wither Tabs (ver.3)

Artists:  A B C D E F G H I J K L M N O P Q R S T U V W X Y Z # 

Season Of Wither Tabs (ver.3)

Aerosmith
Rating:
0/5 (0 votes)

Tabs too difficult? Try these video lessons and learn fast.
                fade in
E-----------------------------------------
A-----------------------------------------
D-----0-----0-----------0----0------------  repeat x5
G----0-----0----0-----2-----3---3---------
B-------------------0------1---1----------
E--3-----1-----3--------------------------


E--2--2--2--2---------------------
A--3--3--3--3---------------------
D--2--2--2--2---------------------
G---------------------------------
B---------------------------------
E---------------------------------
            
Tabs too difficult? Try these video lessons and learn fast.


comments powered by Disqus
↑ Back to top | Tablatures and chords are parodies/interpretations of the original songs. You may use it for private study, scholarship, research or language learning purposes only