>
 >
Seasons Of Wither

Seasons Of Wither Bass Tabs

Aerosmith - Seasons Of Wither chords, tabs, tablatures, lyrics

Guitar lessons | Add/correct | Request | Top 50 tabs Artists:  A B C D E F G H I J K L M N O P Q R S T U V W X Y Z 0-9

Seasons Of Wither Bass Tabs – Aerosmith

CD, Sheet music, Poster

Do you like Seasons Of Wither? Share with your friends now
Bass TabsTabsTabs v2Tabs v3
-----------------------------------------------------------------------
			     Seasons of Wither - Aerosmith
-----------------------------------------------------------------------


Tuning:Standard
Intro (Guitar Plays For Awhile, Bass comes in just after drums)
G|--------------------------------------------------------------------|
D|--------------------------------------------------------------------|
A|0--1--3--5---55--33--55--33--55--33--55-3-1-------------------------|
E|--------------------------------------------0-1-2-3-----------------|
Verse 1 & 2
Blues Hearted Lady
Love For The Devil
Seas of a Thousand
G|--------------------------------------------------------------------|
D|--------------------------------------------------------------------|
A|--------------------------------------------------------------------|
E|0-00--1--11--2-22--3-33(x4) ---------------------------------------|
Bridge (x2)
Ooh Woe is Me

G|--------------------------------------------------------------------|
D|--------------------------------------------------------------------|
A|-3--323-------------------------------------------------------------|
E|--------1--3--------------------------------------------------------|
Chorus
Fireflies Dancin In The Moonlight
G|--------------------------------------------------------------------|
D|--------------------------------------------------------------------|
A|55--33(x3) -55--3--------------------------------------------------|
E|-------------------1--0---------------------------------------------|
Chorus (No Singing)
G|--------------------------------------------------------------------|
D|--------------------------------------------------------------------|
A|-55--33-(x3)---55--3--1---------------------------------------------|
E|------------------------0--1--23*(Play Hard)-----------------------|
				    Play E3 Hard while guitar is playing
Outro	
G|--------------------------------------------------------------------|
D|--------------------------------------------------------------------|
A|0--1--3--5----------------------------------------------------------|
E|--------------------------------------------------------------------|

G|--------------------------------------------------------------------|
D|--------------------------------------------------------------------|
A|--------------------------------------------------------------------|
E|--------------------------------------------------------------------|

G|--------------------------------------------------------------------|
D|--------------------------------------------------------------------|
A|--------------------------------------------------------------------|
E|--------------------------------------------------------------------|
This is how I play it.  Listen to song for exact timing.
| /  slide up
| \  slide down
| h  hammer-on
| p  pull-off
| ~  vibrato
| +  harmonic
| x  Mute note

=========================================================================





Comments


Popular Aerosmith tabs & chords
Angel 2 Bass Tabs
Uncle Salty Bass Tabs
Rag Doll Drum Tabs
Angel 2 Tabs
Avant Garden Intro 1 Tabs
Blind Man Tabs
Hole In My Soul 1 Tabs
Janie's Got A Gun Tabs
No More No More 1 Tabs
Livin On The Edge Ukulele


Song lyrics



↑ Back to top | Tablatures and chords are parodies/interpretations of the original songs. You may use it for private study, scholarship, research or language learning purposes only
© 2014 AZChords.com Contact us | Privacy policy | DMCA | Add/correct tabs | Request tabs | Top 50 tabs