» » »

Aerosmith, Season Of Wither Bass tabs (ver.1)

Artists:  A B C D E F G H I J K L M N O P Q R S T U V W X Y Z # 

Season Of Wither Bass tabs (ver.1)

Aerosmith Tabs
 Rating:
4/5 (4 votes)
Season Of Wither lessons Tabs too difficult? Try these video lessons and learn fast
1
                -----------------------------------------------------------------------
			     Seasons of Wither - Aerosmith
-----------------------------------------------------------------------


Tuning:Standard
Intro (Guitar Plays For Awhile, Bass comes in just after drums)
G|--------------------------------------------------------------------|
D|--------------------------------------------------------------------|
A|0--1--3--5---55--33--55--33--55--33--55-3-1-------------------------|
E|--------------------------------------------0-1-2-3-----------------|
Verse 1 & 2
Blues Hearted Lady
Love For The Devil
Seas of a Thousand
G|--------------------------------------------------------------------|
D|--------------------------------------------------------------------|
A|--------------------------------------------------------------------|
E|0-00--1--11--2-22--3-33—(x4) ---------------------------------------|
Bridge (x2)
Ooh Woe is Me

G|--------------------------------------------------------------------|
D|--------------------------------------------------------------------|
A|-3--323-------------------------------------------------------------|
E|--------1--3--------------------------------------------------------|
Chorus
Fireflies Dancin In The Moonlight
G|--------------------------------------------------------------------|
D|--------------------------------------------------------------------|
A|55--33—(x3) -55--3--------------------------------------------------|
E|-------------------1--0---------------------------------------------|
Chorus (No Singing)
G|--------------------------------------------------------------------|
D|--------------------------------------------------------------------|
A|-55--33-(x3)---55--3--1---------------------------------------------|
E|------------------------0--1--2—3*(Play Hard)-----------------------|
				    Play E3 Hard while guitar is playing
Outro	
G|--------------------------------------------------------------------|
D|--------------------------------------------------------------------|
A|0--1--3--5----------------------------------------------------------|
E|--------------------------------------------------------------------|

G|--------------------------------------------------------------------|
D|--------------------------------------------------------------------|
A|--------------------------------------------------------------------|
E|--------------------------------------------------------------------|

G|--------------------------------------------------------------------|
D|--------------------------------------------------------------------|
A|--------------------------------------------------------------------|
E|--------------------------------------------------------------------|
This is how I play it.  Listen to song for exact timing.
| /  slide up
| \  slide down
| h  hammer-on
| p  pull-off
| ~  vibrato
| +  harmonic
| x  Mute note

=========================================================================
            
Submit corrections

comments powered by Disqus
↑ Back to top | Aerosmith Bass for Season Of Wither. Lyrics for acoustic guitar and electric guitar. 1 Tablatures and chords are parodies/interpretations of the original songs. You may use it for private study, scholarship, research or language learning purposes only