» » »

Aerosmith, Last Child Bass tabs (ver.3)

Artists:  A B C D E F G H I J K L M N O P Q R S T U V W X Y Z # 

Last Child Bass tabs (ver.3)

Aerosmith Tabs
 Rating:
4/5 (4 votes)
Last Child lessons Tabs too difficult? Try these video lessons and learn fast
                Last Child by Aerosmith
Tune down 1/2 step

 (Intro)
|-14---------14-|-14------------|---------------|
|-12---------12-|-12---------12-|-12---------12-|
|---------------|------------10-|-10---------10-|
|---------------|---------------|---------------|



|--------------|-------------|------||
|-12---------9-|-9---------9-|-9----||
|-10---------7-|-7---------7-|-7----||
|------------0-|-0---------0-|-0----||

                             (Verses)
||---------------------||-||-----------------|----------------|
||o-------------------o||-||o----------------|----------------|
||o-----4-5------5-7--o||-||o----4-5------5-7|----4-5------5-7|
||--0-0------0-0-------||-||-0-0------0-0----|0-0------0-0----|

|----------------|----------------|----------------|
|----------------|----------------|----------------|
|----4-5------5-7|----4-5------5-7|----4-5------5-7|
|0-0------0-0----|0-0------0-0----|0-0------0-0----|

|----------------|----------------|----------------|
|----------------|----------------|----------------|
|----4-5------5-7|----4-5------5-7|----4-5------5-7|
|0-0------0-0----|0-0------0-0----|0-0------0-0----|

|-------------------|---------------------|---------------------|
|------------0-2-4--|--------------0-2-4--|--------------0-2-4--|
|-------------------|---------------------|---------------------|
|3-5-5-5-5-5-------3|(3)-5-5-5-5-5-------3|(3)-5-5-5-5-5-------3|

|-----------------------|----------------|----------------||
|-----------------------|----------------|----------------||
|-----------------------|----4-5------5-7|----4-5------5-7||
|(3)-5-5-5-5-5-5-5-3b3-5|0-0------0-0----|0-0------0-0----||

 (Chorus)
|--11h12p11p9s7-9---|--------------|----------------|
|0-----------------0|--------------|----------------|
|-------------------|0----0---0----|----4-5------5-7|
|-------------------|-------------3|0-0------0-0----|

                                   (During Solo)
|-------------------||----------||-------------------------|
|------------------o||----------||o------------------------|
|----4-5------5-7--o||----------||o---5-4-2---------7---5-7|
|0-0------0-0-------||----------||--0-------3b3-5-0---0----|


                     
|-----------------------|-------------------------||---11h12p11p9\7-9--|
|-----------------------|------------------------o||0-----------------0|
|--5-4-2---------7---5-7|--5-4-2---------7---5-7-o||-------------------|
|0-------3b3-5-0---0----|0-------3b3-5-0---0------||-------------------|


                                         
  
|--------------|-----------------------|-----------------------|
|--------------|-----------------------|-----------------------|
|0----0---0----|--5-4-2---------7---5-7|--5-4-2---------7---5-7|
|-------------3|0-------3b3-5-0---0----|0-------3b3-5-0---0----|


                                           
                                           (Outro)
|--11h12p11p9s7-9---|--------------||------------------|
|0-----------------0|--------------||o-----------------|
|-------------------|0----0---0----||o-----4-5------5-7|
|-------------------|-------------3||--0-0------0-0----|


                      x3     
|------------------||-||--------------------||----------------*|
|-----------------o||-||o------------------o||----------------*|
|----4-5------5-7-o||-||o----4-5------5-7--o||----4-5------5-7*|
|0-0------0-0------||-||-0-0------0-0-------||0-0------0-0----*|

Thanks, please rate it after you learn it.
_TheBassist01_
            
Submit corrections

comments powered by Disqus
↑ Back to top | Aerosmith Bass for Last Child. Lyrics for acoustic guitar and electric guitar. Tablatures and chords are parodies/interpretations of the original songs. You may use it for private study, scholarship, research or language learning purposes only