>
 >
Last Child

Last Child Guitar Tabs

Aerosmith - Last Child chords, tabs, tablatures, lyrics

Guitar lessons | Add/correct | Request | Top 50 tabs Artists:  A B C D E F G H I J K L M N O P Q R S T U V W X Y Z 0-9

Last Child Guitar Tabs – Aerosmith

CD, Sheet music, Poster

Do you like Last Child? Share with your friends now
Bass TabsBass Tabs v2ChordsTabsTabs v2Tabs v3Tabs v4Tabs v5Tabs v6
PROPS GO TO: Aerofuel

Aerosmith
"Last Child"
copy. 1976 as heard on Aerosmith's ROCKS


All guitars are tuned down one half step (low to high: Eb Ab Db Gb Bb Eb).

Intro (0:00)
   Slow Rock 

Gtrs. 1 and 2 (Dirty Electric)
                                             
E-----------0--------------------0--------------------0--------------------0-----------]
B--------6-----6--------------6-----6--------------8-----8--------------8-----8--------]
G-----7-----------7--------7-----------7--------7-----------7--------7-----------7-----]
D--7-----------------7--7-----------------7--5-----------------5--5-----------------5--]
A--------------------------------------------------------------------------------------]
E--------------------------------------------------------------------------------------]


E------------0--------------------0----------------------------------------------------]
B---------9-----9--------------9-----9---10---11---------------------------------------]
G------7-----------7--------7--------7----8----9---------------------------------------]
D--/9-----------------9--9-----------9---10---11---------------------------------------]
A--------------------------------------------------------------------------------------]
E--------------------------------------------------------------------------------------]

(0:21)
   Faster

Gtr. 1 (Joe Perry)..........Play 4 times
   Right!
E--7-----------------------7-----------------------------]
B--7-----------------------7-----------------------------]
G--------------------------------------------------------]
D--------------------------------------------------------]
A----------4---5---4-----------4---5---7^^^^^^^^---------]
E------0---------------0---------------------------------]

Gtr. 2 (Brad Whitford)......Play 4 times

E--------------------------------------------------------]
B--------------------------------------------------------]
G--------------------------------------------------------]
D--------------------------------------------------------]
A------2---4---5---4---2-------4---5---7^^^^^^^^---------]
E--0-----------------------------------------------------]


After playing this 4 times, the singing comes in with the same riffs playing.  Listen to the song if you are not sure on how it goes.


Gtr. 1

   Yes sir no sir don't come close to my home sweet home can't catch no nose of my hot
E--------------------------------------------------------------------------------------]
B--------------------------------------------------------------------------------------]
G--------------------------------------------------------------------------------------]
D--5---7---4--5---2-----4----0-----2--4--5----7-----4----5-----2-----4--0----2--4--5---]A--0---0---0--0---0----------0-----0--0--0----0-----0----0-----0-----0--0----0--0--0---]
E--------------------------------------------------------------------------------------]

Gtr. 2

E---------12--15-------------11---------------------12---15-------------11-------------]
B---------12--15-------------11---------------------12---15-------------11-------------]
G---------12-----------------11---------------------12------------------11-------------]
D--------------------------------------------------------------------------------------]
A--------------------------------------------------------------------------------------]
E--------------------------------------------------------------------------------------]


   tail poontang sweetheart sweathog to make silk purse from A.J. Paul Getty (and) his

E--------------------------------------------------------------------------------------]
B--------------------------------------------------------------------------------------]
G--------------------------------------------------------------------------------------]
D------------------------------------------5---7--4----5----2------4-------0--2--4---5-]
A------------------------------------------0---0--0----0----0------0-------0--0--0---0-]
E--------------------------------------------------------------------------------------]

Gtr. 1 

   ear^^^^^^^^^^    with her face in her beer           
E----7-----------------------7-----------------------------]
B----7-----------------------7-----------------------------]
G----------------------------------------------------------]
D----------------------------------------------------------]
A------------4---5---4-----------4---5---7^^^^^^^^---------]
E--------0---------------0---------------------------------]

Gtr. 2 

E--------------------------------------------------------]
B--------------------------------------------------------]
G--------------------------------------------------------]
D--------------------------------------------------------]
A------2---4---5---4---2-------4---5---7^^^^^^^^---------]
E--0-----------------------------------------------------]


Chorus will come later...right now I am tired and want to go to bed!





Comments


Popular Aerosmith tabs & chords
Home Tonight 2 Bass Tabs
Spiderman Bass Tabs
Dream On 4 Chords
Rats In The Cellar Chords
Ain't That A Bitch Tabs
Hangman Jury 1 Tabs
I'm Down Tabs
Walk This Way Intro 1 Tabs
Fly Away From Here Ukulele
Remember Ukulele


Song lyrics



↑ Back to top | Tablatures and chords are parodies/interpretations of the original songs. You may use it for private study, scholarship, research or language learning purposes only
© 2014 AZChords.com Contact us | Privacy policy | DMCA | Add/correct tabs | Request tabs | Top 50 tabs