» » »

Aerosmith, Just Push Play Tabs (ver.1)

Artists:  A B C D E F G H I J K L M N O P Q R S T U V W X Y Z # 

Just Push Play Tabs (ver.1)

Aerosmith Tabs
 Rating:
4/5 (4 votes)
Just Push Play lessons Tabs too difficult? Try these video lessons and learn fast
1
                
ok here's another song that just goes to show that aerosmith is still kickin ass. to all those who think they're "getting old" or they're "washed up," i say get a grip. anyway, this is the second track off their new album.
for a lot of the parts you have to listen to the song to get the right rhythm down...so pop in the cd and just push play


intro- after a few seconds the guitar comes in...there's a few little sixteenth rests in there, you'll get the feel
e|----------------
b|----------------
g|-5/7-7-7-7-7....  play 4x's 
d|----------------
a|----------------
d|----------------


then the verses and chorus are basically the same, i'm not sure if this is exactly right, but it's close. listen to get the rhythm
	
verse and chorus
e|---------------------|
b|---------------------|
g|---------7-----------|
d|-0-4-5-6-7-7-6-5-4-0-|
a|-0-4-5-6-7-7-6-5-4-0-|
d|-0-4-5-6---7-6-5-4-0-|

pre-chorus
then right after "get into the zone baby and do urself a favor" and later "damned if ya do yeah but don't get any on ya", do a barre chord at the 5th fret. do whatever strumming u feel comfortable with...i think it just holds out for a bit after it's strummed

bridge, interlude (whatever u wanna call it)
in the background you can hear low voices singing "A F*** F***ING A A F*** F***ING A A..."  
e|-8b9-10~~~~~~~----8b9-10--10b11\-8~--8b9-10--10b11\-8~
b|---------------------------9b10\-7~-----------9b10\-7~
g|------------------------------------------------------
d|------------------------------------------------------
a|------------------------------------------------------
d|------------------------------------------------------


then there's some stuff after that sounds like the the verse and chorus...lot of stuff i haven't figured out
e|-----------------------8-8-8-10~------------------------|
b|--------------------------------------------------------|   
g|-17b18--------------------------------------------------|      
d|-------------------------------------0---0-0-0---0-0-0--|    
a|-------------------------------------0---0-0-0---0-0-0--|
d|---------0-4-5-6-7-------------------0---0-0-0---0-0-0--|


listen for a simile to the intro 7th fret on the g string
a little lick from walk this way is in there.

the first thing after that goes somethin like this

e|-10-10-8h10-10-|

well that's all that i figured out...most if it sounds about right. if anyone gets a closer version, let me know!!  keep rockin all
            
Submit corrections

comments powered by Disqus
↑ Back to top | Aerosmith Tabs for Just Push Play. Lyrics for acoustic guitar and electric guitar. 1 Tablatures and chords are parodies/interpretations of the original songs. You may use it for private study, scholarship, research or language learning purposes only