>
 >
Just Push Play 2

Just Push Play 2 Guitar Tabs

Aerosmith - Just Push Play 2 chords, tabs, tablatures, lyrics

Guitar lessons | Add/correct | Request | Top 50 tabs Artists:  A B C D E F G H I J K L M N O P Q R S T U V W X Y Z 0-9

Just Push Play 2 Guitar Tabs – Aerosmith

CD, Sheet music, Poster

Do you like Just Push Play 2? Share with your friends now
Bass TabsTabsTabs v2Tabs v3Tabs v4

JUST PUSH PLAY
As recorded by Aerosmith
(From the 2008 Album JUST PUSH PLAY)

        

Words and Music by Tyler/Hudson/Dudas

Gtr I (D A D G B E) - 'Distortion'
Gtr II (D A D G B E) - 'Distortion 2'
Gtr III (D A D G B E) - 'Distortion 3'
Gtr IV (D G D G B D) - 'Clean w/ Silde'

 Intro
  Moderate Rock Q=104
 2/4    4/4
  Gtr I
  H      Wx3          Wx3
|------|------------|--------|
|------|------------|--------|
|------|------------|--------|
|------|------------|--------|
|------|------------|--------|
|------|------------|--------|


   S  S  S  S  S  S S  S S  S S  S  S  S S S
|-10-10-10-10-10-10-x-10---10---10-10-10S5-5S|
|-------------------x------------------------|
|--7--7--7--7--7--7-x--7----7----7--7--7S2-2S|
|--------------------------------------------|
|--------------------------------------------|
|--------------------------------------------|


   S  S  S  S  S  S S  S S  S S  S  S  S  S S
|-10-10-10-10-10-10-x-10---10---10-10-10-10-5S=|
|-------------------x--------------------------|
|--7--7--7--7--7--7-x--7----7----7--7--7--7-2S=|
|----------------------------------------------|
|----------------------------------------------|
|----------------------------------------------|


   S    S  S  S  S  S  S   S  S   S S  S  S  S S S
|-10---10-10-10-10-10--x--10-----10---10-10-10S5-5S|
|----------------------x---------------------------|
|--7----7--7--7--7--7--x---7------7----7--7--7S2-2S|
|--------------------------------------------------|
|--------------------------------------------------|
|--------------------------------------------------|
|
| Gtr IV
|  W
|--------------------------------------------------|
|--------------------------------------------------|
|--------------------------------------------------|
|--------------------------------------------------|
|--------------------------------------------------|
|--------------------------------------------------|
|
| Gtr II
|  Q.                 +E     +H
|--------------------------------------------------|
|--1------------------(1)----(1)-------------------|
|--1b3----------------(1)----(1)-------------------|
|--------------------------------------------------|
|--------------------------------------------------|
|--------------------------------------------------|


   S   S  S  S  S  S S  S S  S S  S  S    S  S S    S  S  S  S  S  S S  S S  S S  S  S   S S S
|-10--10-10-10-10-10-x-10---10---10-10---10-10-5S|=10-10-10-10-10-10-x-10---10---10-10--10S5-5S=|
|--------------------x---------------------------|-------------------x--------------------------|
|--7---7--7--7--7--7-x--7----7----7--7----7--7-2S|==7--7--7--7--7--7-x--7----7----7--7---7S2-2S=|
|------------------------------------------------|----------------------------------------------|
|------------------------------------------------|----------------------------------------------|
|------------------------------------------------|----------------------------------------------|
|
|  ~~~
|  H.                               +Q              W
|-/7--------------------------------(7)\---------|----------------------------------------------|
|-/7--------------------------------(7)\---------|----------------------------------------------|
|-/7--------------------------------(7)\---------|----------------------------------------------|
|------------------------------------------------|----------------------------------------------|
|------------------------------------------------|----------------------------------------------|
|------------------------------------------------|----------------------------------------------|
|
|                                                Gtrs II, III
|  ~~~
|  H.                               +Q              e     e     S  S S  S e    S  S +S   E   S
|------------------------------------------------|----------------------------------------------|
|--9--------------------------------(9)\---------|----------------------------------------------|
|--9--------------------------------(9)\---------|----------------------------------------------|
|--9--------------------------------(9)\---------|----------------------------------------------|
|--0---------------------------------------------|-----------------5p0--------------------------|
|--0---------------------------------------------|--5-----6-----7-------0-5----3--0-(0)--0---0--|


   S  S  S  S  S  S S  S S  S S  S  S   S  S S
|-10-10-10-10-10-10-x-10---10---10-10--10-10-5S|
|-------------------x--------------------------|
|--7--7--7--7--7--7-x--7----7----7--7---7--7-2S|
|----------------------------------------------|
|----------------------------------------------|
|----------------------------------------------|
|
| Gtrs II, III
|                                ~~~~~~
|  e     e     S  S S  S e    S  S +S   E    S
|----------------------------------------------|
|----------------------------------------------|
|----------------------------------------------|
|----------------------------------------------|
|-----------------5p0--------------------------|
|--5-----6-----7-------0-5----4--3-(3)--0----0-|


   S  S  S  S  S  S S  S S  S S  S  S   S S S
|-10-10-10-10-10-10-x-10---10---10-10--10S5-5-||
|-------------------x-------------------------||
|--7--7--7--7--7--7-x--7----7----7--7---7S2-2-||
|---------------------------------------------||
|---------------------------------------------||
|---------------------------------------------||
|
|  e     e     S  S S  S e    S  S +S   E   S
|---------------------------------------------||
|---------------------------------------------||
|---------------------------------------------||
|---------------------------------------------||
|-----------------5p0-------------------------||
|--5-----6-----7-------0-5----3--0-(0)--0---0-||


 Verse
  Gtrs II, III
  e e S S S S e S S +S  E S   e e S S S S e S S +S  E S
|---------------------------|---------------------------|
|---------------------------|---------------------------|
|---------------------------|---------------------------|
|---------------------------|---------------------------|
|-5-6-7-5p0---5-4-3-(3)-0-0-|-5-6-7-5p0---5-3-0-(0)-0-0-|
|-5-6-7-----0-5-4-3-(3)-0-0-|-5-6-7-----0-5-3-0-(0)-0-0-|


  e e S S S S e S S +S  E S   e e S S S S e S S +S  E S
|---------------------------|---------------------------|
|---------------------------|---------------------------|
|---------------------------|---------------------------|
|---------------------------|---------------------------|
|-5-6-7-5p0---5-4-3-(3)-0-0-|-5-6-7-5p0---5-3-0-(0)-0-0-|
|-5-6-7-----0-5-4-3-(3)-0-0-|-5-6-7-----0-5-3-0-(0)-0-0-|


  e e S S S S e S S +S  E S   e e S S S S e S S +S  E S
|---------------------------|---------------------------||
|---------------------------|---------------------------||
|---------------------------|---------------------------||
|---------------------------|---------------------------||
|-5-6-7-5p0---5-4-3-(3)-0-0-|-5-6-7-5p0---5-3-0-(0)-0-0-||
|-5-6-7-----0-5-4-3-(3)-0-0-|-5-6-7-----0-5-3-0-(0)-0-0-||


 Pre-Chorus
  $
  Gtr II
  E. S +S  S E H      E. S +S  S E S S S S S S E
|-------------------|----------------------------|
|-------------------|----------------------------|
|-------------------|----------------------------|
|-5-----------------|-5--------------------5-5---|
|-5--8-(8)-8-7------|-5--8-(8)-8-7---5---5-5-5---|
|-5--5-(5)-5-5------|-5--5-(5)-5-5---5---5-5-5---|


  E. S +S  S E H      E. S +S  S E S S S S S S E
|-------------------|----------------------------||
|-------------------|----------------------------||
|-------------------|----------------------------||
|-5-----------------|-5--------------------5-5---||
|-5--8-(8)-8-7------|-5--8-(8)-8-7---5---5-5-5---||
|-5--5-(5)-5-5------|-5--5-(5)-5-5---5---5-5-5---||


 Chorus
  Gtrs II, III
                  ~~~~~~
  e e S S S S e S S +S  E S   e e S S S S e S S +S  E S
|---------------------------|---------------------------|
|---------------------------|---------------------------|
|---------------------------|---------------------------|
|---------------------------|---------------------------|
|-------5p0-----------------|-------5p0-----------------|
|-5-6-7-----0-5-4-3-(3)-0-0-|-5-6-7-----0-5-3-0-(0)-0-0-|


                     To Coda
                  ~~~~~~
  e e S S S S e S S +S  E S   e e S S S S e S S +S  E S
|---------------------------|---------------------------||
|---------------------------|---------------------------||
|---------------------------|---------------------------||
|---------------------------|---------------------------||
|-------5p0-----------------|-------5p0-----------------||
|-5-6-7-----0-5-4-3-(3)-0-0-|-5-6-7-----0-5-3-0-(0)-0-0-||


 Verse
  e e S S S S e S S +S  E S   e e S S S S e S S +S  E S
|---------------------------|---------------------------|
|---------------------------|---------------------------|
|---------------------------|---------------------------|
|---------------------------|---------------------------|
|-5-6-7-5p0---5-4-3-(3)-0-0-|-5-6-7-5p0---5-3-0-(0)-0-0-|
|-5-6-7-----0-5-4-3-(3)-0-0-|-5-6-7-----0-5-3-0-(0)-0-0-|


                                            D.S. al Coda
  e e S S S S e S S +S  E S   e e S S S S e S S +S  E S
|---------------------------|----------------------------||
|---------------------------|----------------------------||
|---------------------------|----------------------------||
|---------------------------|----------------------------||
|-5-6-7-5p0---5-4-3-(3)-0-0-|-5-6-7-5p0---5-3-0-(0)-0-0--||
|-5-6-7-----0-5-4-3-(3)-0-0-|-5-6-7-----0-5-3-0-(0)-0-0--||


                           Interlude
  &
  E E S S S S e S S +Q      W
|------------------------||------|
|------------------------||------|
|------------------------||------|
|------------------------||------|
|-------5p0--------------||------|
|-5-6-7-----0-5-3-0-(0)--||------|


           Gtr II
                   ~~
  W          H     H       Q   H.
|----------|-8s===10----|-10\--------||
|----------|------------|------------||
|----------|------------|------------||
|----------|------------|------------||
|----------|------------|------------||
|----------|------------|------------||


 Bridge
   ~~~~~                       ~~
   Q     H    S  E      +S     Q  H.
|-12b13---------12pb14r(12)-|-12--------|
|---------------------------|-----------|
|---------------------------|-----------|
|---------------------------|-----------|
|---------------------------|-----------|
|---------------------------|-----------|
|
| Gtr III
|                              ~~
|  Q     H    S  E      +S     Q  H.
|---------------------------|-----------|
|-12b13---------12pb13r(12)-|-10--------|
|---------------------------|-----------|
|---------------------------|-----------|
|---------------------------|-----------|
|---------------------------|-----------|


   ~~~~~                       ~~
   Q     H    S  E      +S     Q  H.
|-12b13---------12pb14r(12)-|-12--------||
|---------------------------|-----------||
|---------------------------|-----------||
|---------------------------|-----------||
|---------------------------|-----------||
|---------------------------|-----------||
|
|                              ~~
|  Q     H    S  E      +S     Q  H.
|---------------------------|-----------||
|-12b13---------12pb13r(12)-|-10--------||
|---------------------------|-----------||
|---------------------------|-----------||
|---------------------------|-----------||
|---------------------------|-----------||


 Interlude
   ~~~~~~~~~~~~~~~~~~
   W            +W
|------------|-----------------|
|------------|-----------------|
|------------|-----------------|
|------------|-----------------|
|-<5>--------|-(<5>)-----------|
|------------|-----------------|
|
|  W             H.       E. S
|------------|-----------------|
|------------|-----------------|
|------------|-----------------|
|------------|-----------------|
|------------|-----------------|
|------------|---------------0-|


  Gtr I
                    PM     PM         PM
    H            S  S   S  S      S   S  E     Q    H    S  S S  S
|------------------------------------------|--10-----------10---10-|
|------------------------------------------|---9------------9----9-|
|------------------<7>----<7>--------<7>---|---7------------7----7-|
|------------------------------------------|-----------------------|
|------------------------------------------|-----------------------|
|------------------------------------------|-----------------------|
|
| Gtr II
|   ~~~~~~~~~~~~~~~~~~~~~~~~~~~~~~~~~~~~~~~~~~~~~~~
|  +W                                         +W
|------------------------------------------|-----------------------|
|------------------------------------------|-----------------------|
|------------------------------------------|-----------------------|
|------------------------------------------|-----------------------|
|-(<5>)------------------------------------|-(<5>)-----------------|
|------------------------------------------|-----------------------|
|
| Gtr III
|   e   e S E S  S  S   S  S     +Q            W
|---------------17-18--19-19b20-(19)-------|-----------------------|
|------------------------------------------|-----------------------|
|------------------------------------------|-----------------------|
|------------------------------------------|-----------------------|
|-----------5------------------------------|-----------------------|
|---5---6-7--------------------------------|-----------------------|


   S   H.            S S  S    S H..                       S
|-10----------------10---10-|-10-----------------------------|
|--9-----------------9----9-|--9-----------------------------|
|--7-----------------7----7-|--7-----------------------------|
|---------------------------|--------------------------------|
|---------------------------|--------------------------------|
|---------------------------|--------------------------------|
|
|  H        E S S S  S S  S    Q     E  S  S  S  S  S  S Q
|-------------x-x-x--x-x--x-|--------9-10-10-10-10-10-10-----|
|-------------x-x-x--x-x--x-|--------------------------------|
|-------------x-x-x--x-x--x-|--------6--7--7--7--7--7--7-----|
|---------------------------|--------------------------------|
|---------------------------|--------------------------------|
|---------------------------|--------------------------------|
|
|  H..                 S  S    W
|---------------------------|--------------------------------|
|---------------------------|--------------------------------|
|---------------------------|--------------------------------|
|---------------------------|--------------------------------|
|---------------------------|--------------------------------|
|-------------------------0-|--------------------------------|


   E H..
|-10----------------------------||
|--9----------------------------||
|--7----------------------------||
|-------------------------------||
|-------------------------------||
|-------------------------------||
|
|  Q     E  S  S  S  S  S  S Q
|--------9-10-10-10-10-10-10----||
|-------------------------------||
|--------6--7--7--7--7--7--7----||
|-------------------------------||
|-------------------------------||
|-------------------------------||
|
|  W
|-------------------------------||
|-------------------------------||
|-------------------------------||
|-------------------------------||
|-------------------------------||
|-------------------------------||


 Chorus
  Gtrs II, III
                  ~~~~~~
  e e S S S S e S S +S  E S   e e S S S S e S S +S  E S
|---------------------------|---------------------------|
|---------------------------|---------------------------|
|---------------------------|---------------------------|
|---------------------------|---------------------------|
|-------5p0-----------------|-------5p0-----------------|
|-5-6-7-----0-5-4-3-(3)-0-0-|-5-6-7-----0-5-3-0-(0)-0-0-|


                  ~~~~~~
  e e S S S S e S S +S  E S   e e S S S S e S S +S  E S
|---------------------------|---------------------------||
|---------------------------|---------------------------||
|---------------------------|---------------------------||
|---------------------------|---------------------------||
|-------5p0-----------------|-------5p0-----------------||
|-5-6-7-----0-5-4-3-(3)-0-0-|-5-6-7-----0-5-3-0-(0)-0-0-||


 Interlude
  Gtr I
  H    E  S  S  S  S  S  S   H    E  S  S  S E.
|------9-10-10-10-10-10-10-|------9-10-10-10----|
|--------------------------|--------------------|
|------6--7--7--7--7--7--7-|------6--7--7--7----|
|--------------------------|--------------------|
|--------------------------|--------------------|
|--------------------------|--------------------|


  H    E  S  S  S  S  S  S   H    E  S  S  S E.
|------9-10-10-10-10-10-10-|------9-10-10-10----|
|--------------------------|--------------------|
|------6--7--7--7--7--7--7-|------6--7--7--7----|
|--------------------------|--------------------|
|--------------------------|--------------------|
|--------------------------|--------------------|


  H    E  S  S  S  S  S  S   H    E  S  S  S E.
|------9-10-10-10-10-10-10-|------9-10-10-10-----|
|--------------------------|---------------------|
|------6--7--7--7--7--7--7-|------6--7--7--7-----|
|--------------------------|---------------------|
|--------------------------|---------------------|
|--------------------------|---------------------|


  Gtr II                 Gtr I
  S S S S S S S S E E Q    H    E  S  S  S E.
|------------------------|------9-10-10-10----||
|------------------------|--------------------||
|------------------------|------6--7--7--7----||
|------------------------|--------------------||
|-------5---------5---5--|--------------------||
|-5-6-7-----5-6-7---7----|--------------------||


 Chorus
  Gtrs II, III
                  ~~~~~~
  e e S S S S e S S +S  E S   e e S S S S e S S +S  E S
|---------------------------|---------------------------|
|---------------------------|---------------------------|
|---------------------------|---------------------------|
|---------------------------|---------------------------|
|-------5p0-----------------|-------5p0-----------------|
|-5-6-7-----0-5-4-3-(3)-0-0-|-5-6-7-----0-5-3-0-(0)-0-0-|


                  ~~~~~~
  e e S S S S e S S +S  E S   e e S S S S e S S +S  E S
|---------------------------|---------------------------|
|---------------------------|---------------------------|
|---------------------------|---------------------------|
|---------------------------|---------------------------|
|-------5p0-----------------|-------5p0-----------------|
|-5-6-7-----0-5-4-3-(3)-0-0-|-5-6-7-----0-5-3-0-(0)-0-0-|


                  ~~~~~~
  e e S S S S e S S +S  E S   e e S  S    S S  e    S  S     +S  E S
|---------------------------|----------------------------------------|
|---------------------------|----------------------------------------|
|---------------------------|----------------------------------------|
|---------------------------|----------------------------------------|
|-------5p0-----------------|--------5p===0--------------------------|
|-5-6-7-----0-5-4-3-(3)-0-0-|-5-6-7---------0--5----3--0-----(0)-0-0-|
|
| Gtr I
|                                                      ~~~~~~~~~~
| W                           Q   S  E.        S  E    S     +Q
|---------------------------|--------------------10------------------|
|---------------------------|-------13b15-----13------13b15-(13)-----|
|---------------------------|----------------------------------------|
|---------------------------|----------------------------------------|
|---------------------------|----------------------------------------|
|---------------------------|----------------------------------------|


                  ~~~~~~
  e e S S S S e S S +S  E S
|---------------------------|
|---------------------------|
|---------------------------|
|---------------------------|
|-------5p0-----------------|
|-5-6-7-----0-5-4-3-(3)-0-0-|
|
| W
|---------------------------|
|---------------------------|
|---------------------------|
|---------------------------|
|---------------------------|
|---------------------------|


  e e  S  S  S  S  e    S  S       +S  E         S
|---------------------------------------------------|
|---------------------------------------------------|
|---------------------------------------------------|
|---------------------------------------------------|
|---------5p=0--------------------------------------|
|-5-6--7--------0--5----3--0-------(0)-0---------0--|
|
|                          ~~~~~~~
|                                          |-3-|
| Q    S  S  S  S  S  E    S       +E     +S   E
|--------------10----13---13pb15==(13)r==(13)p10----|
|-----13p10-----------------------------------------|
|-----------12----10--------------------------------|
|---------------------------------------------------|
|---------------------------------------------------|
|---------------------------------------------------|


  Gtr I
                     ~~~~~~~~~~
  H            E  S  S     +Q
|-------------10-10-10----(10)-----|
|-------------13-13-13b15-(13)-----|
|----------------------------------|
|----------------------------------|
|----------------------------------|
|----------------------------------|
|
| Gtrs II, III
| e e S S S S  e  S  S     +S  E S
|----------------------------------|
|----------------------------------|
|----------------------------------|
|----------------------------------|
|-5-6-7-5p0----5--4--3-----(3)-0-0-|
|-5-6-7-----0--5--4--3-----(3)-0-0-|


 5/4
         ~~~~~~~~~~~~~~~~~~
   E  S  S     +Q     +Q   H
|-10-10-10----(10)---(10)\------------------------||
|-13-13-13b15-(13)---(13)\------------------------||
|-------------------------------------------------||
|-------------------------------------------------||
|-------------------------------------------------||
|-------------------------------------------------||
|
|  e  e         S  S       S S e S S +S  E S Q
|-------------------------------------------------||
|-------------------------------------------------||
|-------------------------------------------------||
|-------------------------------------------------||
|--5--6---------7--5p======0---5-3-0-(0)-0-0-0----||
|--5--6---------7------------0-5-3-0-(0)-0-0-0----||


 Interlude
 4/4
           ~~~~~~~~~~~~~~~
    E.  a  S  +H      +S   +E.     E   Q.    +Q.      E
|-/19--19s20-(20)----(20)-(20)\-|-------------------------|
|-------------------------------|-------------------------|
|-------------------------------|-10s=11----(11)----------|
|-------------------------------|-------------------------|
|-------------------------------|-------------------------|
|-------------------------------|-------------------------|
|
| Gtr IV
|   W                              H.             S S S S
|-------------------------------|-------------------------|
|-------------------------------|-------------------------|
|-------------------------------|-------------------------|
|-------------------------------|-------------------0-0-0-|
|-------------------------------|-------------------------|
|-------------------------------|-------------------------|
|
| Gtrs II, III
|  +W                             +W
|-------------------------------|-------------------------|
|-------------------------------|-------------------------|
|-------------------------------|-------------------------|
|-------------------------------|-------------------------|
|--(0)--------------------------|-(0)---------------------|
|--(0)--------------------------|-(0)---------------------|


        ~~~~~~~             ~~~~            ~~
     S  E. +Q   Q.    E     H     Q   Q     H     +E   E  Q
|-----------------------|------------14s=|=12----(12)-12-----|
|---10s=8--(8)-------10-|-/15------------|-------------------|
|-----------------------|----------------|-------------------|
|-----------------------|----------------|---------------10s=|
|-----------------------|----------------|-------------------|
|-----------------------|----------------|-------------------|
|
| a  W                      W               W
|-----------------------|----------------|-------------------|
|-----------------------|----------------|-------------------|
|-----------------------|----------------|-------------------|
|-----------------------|----------------|-------------------|
|-7s=5------------------|----------------|-------------------|
|-----------------------|----------------|-------------------|
|
|   +W                     +W               W
|-----------------------|----------------|-------------------|
|-----------------------|----------------|-------------------|
|-----------------------|----------------|-------------------|
|-----------------------|----------------|-------------------|
|---(0)-----------------|--(0)-----------|-------------------|
|---(0)-----------------|--(0)-----------|-------------------|


      ~~~~~~~~~~~~            ~~~~
   E  Q.     E  E  S   E.     H      +Q    Q
|-------------------------|----------------------|
|-------------------------|----------------------|
|-------------------------|----------------------|
|-12-12----/12-12-12-[12]s|=[10]----(10)--10s====|
|-------------------------|----------------------|
|-------------------------|----------------------|
|
|  W                          W
|-------------------------|----------------------|
|-------------------------|----------------------|
|-------------------------|----------------------|
|-------------------------|----------------------|
|-------------------------|----------------------|
|-------------------------|----------------------|
|
|  W                          W
|-------------------------|----------------------|
|-------------------------|----------------------|
|-------------------------|----------------------|
|-------------------------|----------------------|
|-------------------------|----------------------|
|-------------------------|----------------------|


      ~~~~~~~~~~                                ~~~~~~~
   E  Q.    +Q   E E    E  E  E  S  S  S  S  S  S  +E.  S
|---------------------|---------------------10---------10-|
|---------------------|------------------10----13-(13)----|
|---------------------|---10-12-10-10h11------------------|
|-12-12----(12)-------|-----------------------------------|
|---------------------|-----------------------------------|
|------------------x/-|-0---------------------------------|


   |--3--|        |----3-----|        |---------6---------|
   S  S  S  S  S  S     +S   S  S  S  S     +S   S  S  S  S  S  S  S  S
|----------10-10------------------10------------------------------------|
|-13p10----------13b15r(13)p10------------------------------------------|
|-------12---------------------12----12b14r(12)p10----12p10----10-------|
|--------------------------------------------------12-------12----12-10-|
|-----------------------------------------------------------------------|
|-----------------------------------------------------------------------|


   ~~~~~~
   Q   E  S  S  S  E S +Q     +E   S  S S  S  S S  S  S S  S  S S  S  S
|---------------------------|-------------------------------------------|
|---------------------------|-------------------------------------------|
|---------------------------|-------------------------------------------|
|-12--12-10-----------------|-------------------------------------------|
|-----------12-11-10s9-(9)--|-(9)---------------------------------------|
|---------------------------|-----10-12-0-10-12-0-10-12-0-10-12-0-10-12-|


  S  S  S S  S  S S  S  S S  S  S S  S  S S
|--------------------------------------------|
|--------------------------------------------|
|--------------------------------------------|
|--------------------------------------------|
|--------------------------------------------|
|-0-10-12-0-10-12-0-10-12-0-10-12-0-10-12-0--|


   S  S S  S  S S  S  S S  S  S S  S  S S  S
|--------------------------------------------|
|--------------------------------------------|
|--------------------------------------------|
|--------------------------------------------|
|--------------------------------------------|
|-10-12-0-10-12-0-10-12-0-10-12-0-10-12-0-10-|


   S S  S  S S  S  S S  S  S S  S  S S  S  S
|--------------------------------------------|
|--------------------------------------------|
|--------------------------------------------|
|--------------------------------------------|
|--------------------------------------------|
|-12-0-10-12-0-10-12-0-10-12-0-10-12-0-10-12-|


  S  S  S S  S  S S  S  S S  S  S S  S  S S
|-------------------------------------------|
|-------------------------------------------|
|-------------------------------------------|
|-------------------------------------------|
|-------------------------------------------|

|-0-10-12-0-10-12-0-10-12-0-10-12-0-10-12-0-|


   S  S S  S  S S  S  S S  S  S S  S  S S  S
|--------------------------------------------|
|--------------------------------------------|
|--------------------------------------------|
|--------------------------------------------|
|--------------------------------------------|
|-10-12-0-10-12-0-10-12-0-10-12-0-10-12-0-10-|


   E Q.   H      W
|--------------|------*|
|--------------|------*|
|--------------|------*|
|--------------|------*|
|--------------|------*|
|-10-----------|------*|



Duration Legend
---------------
W - whole; H - half; Q - quarter; E - 8th; S - 16th; T - 32nd; X - 64th; a - acciaccatura
+ - note tied to previous; . - note dotted; .. - note double dotted
Uncapitalized letters represent notes that are staccato (1/2 duration)
Irregular groupings are notated above the duration line
Duration letters will always appear directly above the note/fret number it represents the
duration for.  Duration letters with no fret number below them represent rests.  Multi-
bar rests are notated in the form Wxn, where n is the number of bars to rest for.  Low
melody durations appear below the staff

Tablature Legend
----------------
 h   - hammer-on
 p   - pull-off
 b   - bend
 pb  - pre-bend
 r   - bend release (if no number after the r, then release immediately)
 /\  - slide into or out of (from/to "nowhere")
 s   - legato slide
 S   - shift slide
 - natural harmonic
[n]  - artificial harmonic
n(n) - tapped harmonic
 ~   - vibrato
 tr  - trill
 T   - tap
 TP  - trem. picking
 PM  - palm muting
\n/  - tremolo bar dip; n = amount to dip
 \n  - tremolo bar down
 n/  - tremolo bar up
/n\  - tremolo bar inverted dip
 =   - hold bend; also acts as connecting device for hammers/pulls
 <> - volume swell (louder/softer)
 x   - on rhythm slash represents muted slash
 o   - on rhythm slash represents single note slash

Misc Legend
-----------
 |  - bar
||  - double bar
||o - repeat start
o|| - repeat end
*|  - double bar (ending)
 :  - bar (freetime)
 $  - Segno
 &  - Coda
Tempo markers -  = BPM(8/16=s8/s16), where s8 = swing 8ths, s16 = swing 16ths





Comments


Popular Aerosmith tabs & chords
Dream On 4 Chords
I Dont Want To Miss A Thing 4 Chords
Jaded 1 Chords
Sick As A Dog Chords
Think About It Chords
Don Wanna Miss A Thing Tabs
Girls Of Summer 1 Tabs
St John Tabs
Walkin The Dog Tabs
Remember Ukulele


Song lyrics



↑ Back to top | Tablatures and chords are parodies/interpretations of the original songs. You may use it for private study, scholarship, research or language learning purposes only
© 2014 AZChords.com Contact us | Privacy policy | DMCA | Add/correct tabs | Request tabs | Top 50 tabs