>
 >
Jaded 1

Jaded 1 Guitar Tabs

Aerosmith - Jaded 1 chords, tabs, tablatures, lyrics

Guitar lessons | Add/correct | Request | Top 50 tabs Artists:  A B C D E F G H I J K L M N O P Q R S T U V W X Y Z 0-9

Jaded 1 Guitar Tabs – Aerosmith

CD, Sheet music, Poster

Do you like Jaded 1? Share with your friends now
Bass TabsChordsChords v2TabsTabs v2
Tuning: Tune the B string up a half-step                      <LEGAND>
                                                       ========================
                                                       | ~ = Vibrato          |
             Riff A            <Main Riff>             | h = hammer on        |
       E|--------------------------------------------| | p = pull-off         |
      B#|--------------------------------------------| | x = palm mutt        |
       G|-------------------------Play this 3 times--| | ^ = full step bend   |
       D|--7--7^~-(7^)~-(7^)~*-7--5------------------| | * = release bend     |
       A|--5--5---(5)---(5)----5--5------------------| | ()= ghost note       |
       E|--------------------------------------------| | # = wah-wah          |
            Riff A1                                    |  / = slide up        |
       E|--------------------------------------------| ========================
      B#|------------------------Then play this------|
       G|--7_7-7--5-5-5------------------------------|
       D|--5-5-5--5-5-5------------------------------|
       A|--------------------------------------------|
       E|--------------------------------------------|
                   

        Here's what I have come up with as the chords, 
               
  
        Play over top of Riff A
       E|---------------------||--1--1--1--O--O--O--------|
      B#|--1--1--1--1--1--O---||--2--2--2--O--O--O--------|
       G|--2--2--2--2--2--O---||--2--2--2--O--O--O--------|
       D|--2--2--2--2--2--O---||--O--O--O--O--O--O--------|
       A|--O--O--O--O--O--O---||--------------------------|
       E|---------------------||-Play over top of Riff A1-|

        

            

     Here's the verse:                                              
                                                                               
                                                                             
     (I included some of the lyrics to help with the timing)             
   E|-------------------------------------------------------------------|
  B#|-------------------------------------------------------------------|
   G|----2-------2-------2-------------2--2-------2-------2-------------|
   D|-2---2-2---2-2-2---2-2-2-2-2-2--2-2---2-2---2-2-2---2-2-2-2-2-2--2-|
   A|-O----O---O---O---O---O-O-O-O---2-O----O---O---O---O---O---O-O-O-2-|
   E|--------------------------------O--------------------------------O-|
     HEY...           YOU...    ....To ME...                    
        


      This part is at the end of each verse. use the wah pedal.
               

       E|--------------------------------------------------|
      B#|--11#####-----------------------------------------|
       G|--9######-----------------------------------------|
       D|--------------------------------------------------|
       A|--------------------------------------------------|
       E|--------------------------------------------------|
                            


         This is what I came up with for the chorus, 
         I pretty sure its correct.
       E|-----------------------------------------------------|
      B#|-----------------------------------------------------|
       G|--5~-3~------------------------3-5p3-----------------|
       D|--------5~-3~--5/7~--7~-7~--3h5------5p3-------------|
       A|----------------------------------------5p3pO--------|
       E|-----------------------------------------------------|
          my my  ba-by blue...(do the slide on the blue part)




I know there might be some stuff wrong here...
so please excuse me for I
           
That should get you started for now. 
I have the solo and bridge parts figured out,
but im anxiouse to get what I have posted. 
Because the album was released!!
If you have any questions or suggestions.
Feel free to e-mail me at...


      ENJOY!!!



PS...!!!!!PLEAE DON'T RE-POST THIS TAB WITHOUT MY PERMISSION!!!!!





Comments


Popular Aerosmith tabs & chords
Last Child 2 Bass Tabs
Livin On The Edge Bass Tabs
Same Old Song And Dance 2 Bass Tabs
Falling In Love Chords
Pink Chords
Cryin Tabs
Dream On 5 Tabs
Lay It Down Tabs
Movin' Out Tabs
No More No More Tabs


Song lyrics



↑ Back to top | Tablatures and chords are parodies/interpretations of the original songs. You may use it for private study, scholarship, research or language learning purposes only
© 2014 AZChords.com Contact us | Privacy policy | DMCA | Add/correct tabs | Request tabs | Top 50 tabs