» » »

Aerosmith, Jaded Bass tabs (ver.1)

Artists:  A B C D E F G H I J K L M N O P Q R S T U V W X Y Z # 

Jaded Bass tabs (ver.1)

Aerosmith Tabs
 Rating:
4/5 (4 votes)
Jaded lessons Tabs too difficult? Try these video lessons and learn fast
                Instrument: Bass guitar

I've waited weeks to see if anyone would tab this 
song but to no avail have I found it anywhere so I
figured I would post it & return the favor of 
borrowing many tabs.. I have to say this is one of
my favorite Aerosmith songs.... The bass and the
drums set the foundation for this song and I think
it grooves very nicely... Anyways, here's my
interpretation.  P.S.  \\\\ = slide the note down
towards the nut & () = choke the note.

		Intro bass lick (this is done x2)
		G----------------------------------7--6-7--
Drum Int. 	D--------7---------7---------7-------------
    		A-0--7\\\\--0--7\\\\--0--7\\\\--5----------
		E------------------------------------------

Verse 
G------------------------------------------------------
D---7--6-7----7--6-7-6------4--------7--6-7------------
A-0---------0------------------------------------------
E------------------------------------------------------

G--------------------7--6-7-----------------------------
D-------------------------------------7--6-7----7--6-7-6
A-------------5---------------------0---------0---------
E-------------------------------------------------------

G-------------------------------------------------7--6-7---
D---4------------7--6-7----------------5-------------------
A----------------------------------------------------------
E----------------------------------------------------------

Pre-Chorus
G-----4-------------7-------------------4------------------
D----------------------------------------------------------
A--2--------------5-------------------2----(5)(choke note)
E----------------------------------------------------------

CHORUS
G----------------------------------------------------------
D----------------------4-4-4-4-4-4-4-4-4-4-4-4-4-----------
A-0-0-0-0------4-4-2-4---------------------------0-0-0-----
E---------2-2-2----------------------------------------2-2-


G----------------------------------------------------------
D------------2-2-2-2-2-------------------------------------
A----4-4-2-4-----------5-5-5-5-(2)(choke note)-------------
E-2-2------------------------------------------------------

Bass Fill #1
G---------------------------------
D--------7---------7--------------
A-0--7\\\\--0--7\\\\--------------
E---------------------------------

Verse 2
Pre-Chorus
CHORUS
Bass Fill #1

<>

G--------------------------------------------------------
D--------------------------------------------------------
A-------------------------5-5-5-5------------------------
E-0-0-0-0-0-0-0-0-0-0-0------------0-0-0-0-0-0-0-0-0-0-0-

G---------------------------------------
D---------------------------------------
A----2-2-2------------------5-5-5-5-5-5-
E-0-0-------0-0-0-0-0-0-0---------------

G----------------------------------------------3--2-3-2---
D---------------------------------------------------------
A-5-5-5--3-3-3-3-3-3-3-3---2-2-2-2--1-1-1-1-1-----------0-
E---------------------------------------------------------

Intro lick (only x1)

Verse 3 (only ½ as long)

Pre chorus (ends on "A" choked note)

CHORUS

(end) 
G-----------------------------------------------------
D-2-2-2-2-2-2-----------------------------------------
A----------------5-5-5---------5-5-5-5----------------
E----------------------2-2-2-2---------2-2-2-2-2-2-2-2

G-------------------------------------------------------
D-------------------------------------------------------
A---------------5-5-5-5---------------------------------
E-2-2-2-2-2-2-2---------(2)(choke note)-----------------

Outro-bass lick
G-------------------------------------------------------
D---------7---------7---------7-------------------------
A- 0--7\\\\--0--7\\\\--0--7\\\\--0-let ring-------------
E-------------------------------------------------------
            
Submit corrections

comments powered by Disqus
↑ Back to top | Aerosmith Bass for Jaded. Lyrics for acoustic guitar and electric guitar. Tablatures and chords are parodies/interpretations of the original songs. You may use it for private study, scholarship, research or language learning purposes only