» » »

Aerosmith, Eat The Rich Bass tabs (ver.3)

Artists:  A B C D E F G H I J K L M N O P Q R S T U V W X Y Z # 

Eat The Rich Bass tabs (ver.3)

Aerosmith Tabs
 Rating:
4/5 (4 votes)
Eat The Rich lessons Tabs too difficult? Try these video lessons and learn fast
1
                The other bass tab for this song is off on a few sections... i cant be sure that mine is 
but it does sound good when i play it this way.

Tuning: EADG

Pre-Intro?
at about 00:15 (if you pay attention, you can hear them cound off)
G ---------------------------------|
D ---------------------------------|
A ---------------------------------|
E  -0--0----0--0---0--0---0--12\---|

the lead guitar plays the riff once before you are supposed to come in. After you hit 
open E string twice, you wait for him to finish the first half of the riff a second time 
you come in with the same riff at about 0:25
G------------------------------------------------------|
D------------------------------------------------------|
A---------------------------------5--------------------|
E -(guitar riff here)-0--0----------5h6--6-5-3--0--0---|

G---------------------------------|
D-----5---------------------------|
A-5h7---5h7-------5---------------|
E -----------3--5h6--6-5-3--0--0--|(x2)

Verse  (Im pretty sure that this is not what he plays but it sounds fine with the right rhythm)
G------------------|
D------------------|
A---7-55-----------|
E -0-----7-00-3-3--|(x12)

Pre-Chorus
G-----------------------------------------------------|
D-----------------------------------------------------|
A-----------------------------------------------------|
E -0--2---3--5-----0--2---3--5--/12\-----0--2---3--5--|

G---------------------------------------|
D---------------------------------------|
A------------------12-11h12-11h12-14----|
E -7-7-7-7-7-7-7-7----------------------|

Chorus
G-------------------------------|
D-------------------------------|
A-7--5--------5-5---------------|
E ------7--5-------7-5h7-5-3-0--|(x4)

First guitar solo--->play verse(x4)
Verse(x8)
Pre-Chorus
Chorus
Intro

Second guitar solo
G----------------------------------------------------------------|
D----------------------------------------------------------------|
A----------------------------------------------------------------|
E -5--5---5--5---0--0---0--0---5--5---5--5----7-7-7-7-7-7-7-7----|

G---------------------------|
D---------------------------|
A-5--5-5--5-5---5-5-5-5-----|
E --------------------------|
    Then play verse riff (x8) and add an open E at the end of the 8th one

Pre-Chorus
Chorus
end

I think its ok. I will not be as cocky as the other guy who put the bass tab for this 
up... I think it is pretty close to the real thing (closer than the other guy's), but 
r welcomed.
            
Submit corrections

comments powered by Disqus
↑ Back to top | Aerosmith Bass for Eat The Rich. Lyrics for acoustic guitar and electric guitar. 1 Tablatures and chords are parodies/interpretations of the original songs. You may use it for private study, scholarship, research or language learning purposes only