» » »

Eat The Rich Bass tabs (ver.1)

Artists:  A B C D E F G H I J K L M N O P Q R S T U V W X Y Z # 

Eat The Rich Bass tabs (ver.1)

Aerosmith
Rating:
0/5 (0 votes)

Hard to play? Try these video lessons and learn fast.
                -------------------------------------------------------------------------------
			                    EAT THE RICH - Aerosmith
-------------------------------------------------------------------------------


Tuning:standard EADG

This is pretty much... right.

G|---------------------------------------------------------------------------|
D|---------------------------------------------------------------------------|
A|----------------------------7b---------------------------------------------|
E|-----0-0----0-0----0-0----0------------------------------------------------|

Pause then

G|---------------------------------------------------------------------------|
D|---------------------------------------------------------------------------| 
A|-----------------------------5---------------------------------------------|
E|--0-0-------------------5h6h7-5h6h7----6-5-3--0-0--------------------------|

G|---------------------------------------------------------------------------|
D|-------------------5-------------------------------------------------------| (x2)
A|-----------5h7---------5h7---------------5---------------------------------|
E|-----------------------------3----5h6h7----6-5-3--0-0----------------------|


Verse:

D|---------------------------------------------------------------------------|
G|---------------------------------------------------------------------------| (x12)
A|-------7-------------------------------------------------------------------|
E|-----0---0-0-3--0----------------------------------------------------------|

Pre-Chorus:

And I'm sick of...
G|---------------------------------------------------------------------------|
D|----------------------------------------------------7-6h7-6h7-9------------| (x3)
A|---------------------------------------------------------------------------|
E|---0--2-3-5---0--2-3-5---0--2-3-5--7-7-7-7-7-7-7-7-------------------------|

Chorus:

G|---------------------------------------------------------------------------|
D|---------------------------------------------------------------------------| (x4)
A|------7--5-----------5--2--------------------------------------------------|
E|-------------7--5------------5--3--0---------------------------------------|

You play the verse during the solos. Have fun!
            
Hard to play? Try these video lessons and learn fast. | Correct




comments powered by Disqus
↑ Back to top | Tablatures and chords are parodies/interpretations of the original songs. You may use it for private study, scholarship, research or language learning purposes only