>
 >
Angel 1

Angel 1 Guitar Tabs

Aerosmith - Angel 1 chords, tabs, tablatures, lyrics

Guitar lessons | Add/correct | Request | Top 50 tabs Artists:  A B C D E F G H I J K L M N O P Q R S T U V W X Y Z 0-9

Angel 1 Guitar Tabs – Aerosmith

CD, Sheet music, Poster

Do you like Angel 1? Share with your friends now
Bass TabsBass Tabs v2Bass Tabs v3ChordsChords v2Chords v3Chords v4TabsTabs v2Tabs v3Tabs v4Ukulele
Ive seen a few tabs for this song. Their good, but this ones 100% correct. This one is from 
greatest hits tab book and sounds PERFECT. This is the way My band plays it.

All guitars down 1/2 step.


Words and music by Tyler/Child

Intro:
I use a delay and a little bit of chorus on this part. Be careful on the delay, too much 
screw this up and it will sound horrible.

      E5    B5 A5           B5          E5                         B5

|-----12~~~~|-----------------------------------------------------------|
|-----------|---------------------------------------------12brh10-12~~--|
|-----------|-------------4-6~~--(6)h4--6/9-6h4-9/11-11h9---------------|
|-----------|-------2-4/6-----------------------------------------------|
|-----------|-----------------------------------------------------------|
|-----------|-----------------------------------------------------------|
   A5                     B5     E5      B5 A5      C#
|-------------------12-------|---16----16brbrb--12-|-12-9------------------|
|-9h12p9h12p9h12-12b-----12r-|---------------------|------12-10-9----------|
|----------------------------|---------------------|--------------11-9---11|
|----------------------------|---------------------|-------------------11--|
|----------------------------|---------------------|-----------------------|
|----------------------------|---------------------|-----------------------|

|---------------------------------------------------|
|----------------------------10p9-------------------|
|---9----------------9-9-9h11-----11p9--------------|
|-11--9h11-----9-9h11------------------9BrBrBrBrBrBr|
|----------9h11-------------------------------------|
|---------------------------------------------------|


Verse:
This is what the teab book says to do, But I just strum the chords. You can do it either 
and it sounds okay.

   E                                           A
 I'm Alone......                              Face the Night...
|------------0-----0---------------0-----0---|-----------5----5-|
|------------0-----0---------------0-----0---|-----------5----5-|
|------------1-----1---------------1-----1---|------------------|
|------2--------2----2-------2--------2------|-----7------------|
|----2---2-----------------2----2------------|---7--------------|
|--0---------------------0-------------------|-5------5-----5---|


                      E                 C#m7
              Im in Tears..      and The Cryin...
|-----------5----5-|-----------0----0--|------4-----4-------|
|-----------5----5-|-----------0----0--|------5-----5--5----|
|------------------|-----------1----1--|---4--4-----4-----6-|
|-----7------------|------2------2-----|-6-------6--6--6-6--|
|---7--------------|----2---2----------|-4------------------|
|-5------5-----5---|--0----------------|--------------------|

  G#m
 You....
|-------------4---4---|----------------------|
|-------------4---4---|----------------------|
|-------4-------------|----------------------|
|-------6--6----6---6-|--7-7-7-7--7--7-------|
|--6--6-------------6-|--7-7-7-7--7--7-------|
|--4------------------|--5-5-5-5-5-5-5-------|


Pre-Chorus: Just Bar Chords. Simple


B5     C#5           A5

I want your Love,   Lets break the walls between__us

B5          C#5        A5

Dont make it tough,  I'll put away my pride.

B5       C#5      A5                             B5

Enoughs Enough,  Ive suffered and Ive seen the Light_________

Chorus:


E5            B5  A5                        C#5     B5     A5
Your my Angel         Come and save me Too Night_______________

E5            B5  A5                        C#5     B5     A5
Your My Angel         Come and make it All Right________________


Verse once Again

Then Chorus

Guiatr Solo:
 Not nuthin too hard. Just a TAD bit of distortion and reverb.


|-------------------------------------------------------------------|
|------9--10--9--7h9p7----------------------------------------------|
|----9-----------------9----6h9p6-----------------------------------|
|-----------------------------------9--7--6--6h7p6------------------|
|----------------------------------------------------9---7\4/7~~~~~-|
|-------------------------------------------------------------------|

|--------------------|-----------------12--------------------|
|--------------------|------12B-R~~--------------------------|
|--------------6--9B-|(9)R---------11B----~~--11B-rp9------9-|
|-------6-7-9--------|---------------------------------9h11--|
|--7--9--------------|---------------------------------------|
|--------------------|---------------------------------------|


|------------------------------------9--------------------------------------|
|------------------------------------9--------------12----------------10-10-|
|--9----------------9--11--11Br9-11----11p9---9-11B----11r-9-11-9-11-11-----|
|---------9-9--9h11-------------------------11------------------------------|
|-----9h11------------------------------------------------------------------|
|---------------------------------------------------------------------------|


    *Slowly bend up
|-------------|-----------------|
|-10b-10b-10b-|--10B~~~~~~~~~~--|
|-------------|-----------------|
|-------------|-----------------|
|-------------|-----------------|
|-------------|-----------------|


Well Thats It Folks.Yall can kinda figure the song order on your own. I hope you liked 
Tell if theres any mistakes.





Comments


Popular Aerosmith tabs & chords
Big Ten Inch Record Bass Tabs
I Dont Want To Miss A Thing Bass Tabs
Fly Away From Here Chords
Jaded 1 Chords
Remember Chords
Crazy 2 Tabs
I'm Down Tabs
Light Inside Tabs
Sweet Emotion 6 Tabs
Write Me A Letter Tabs


Song lyrics



↑ Back to top | Tablatures and chords are parodies/interpretations of the original songs. You may use it for private study, scholarship, research or language learning purposes only
© 2014 AZChords.com Contact us | Privacy policy | DMCA | Add/correct tabs | Request tabs | Top 50 tabs