» » »

Aerosmith, Angel Bass tabs (ver.3)

Artists:  A B C D E F G H I J K L M N O P Q R S T U V W X Y Z # 

Angel Bass tabs (ver.3)

Aerosmith Tabs
 Rating:
4/5 (4 votes)
Angel lessons Tabs too difficult? Try these video lessons and learn fast
                Aerosmith - Angel

Intro
G||----------------|----------------|----------------|
D||----------------|----------------|----------------|
A||----------------|-6--------------|----------------|
E||----------------|------------6---|4-----------6---|

G||----------------|----------------|----------------|
D||----------------|----------------|----------------|
A||----------------|----------------|6---------------|
E||8-----------6---|4-------|-4-6---|------------6---|
                                     
G||----------------|----------------|----------------|
D||----------------|----------------|----------------|
A||4---------------|----------------|----------------|
E||------------6---|8-----------6---|4---------------|

                    Verse 1
G||----------------||----------------|----------------|
D||----------------||----------------|----------------|
A||----------------||6---------------|6---------------|
E||----------------||--------------6-|--------------6-|

G||----------------|----------------|----------------|
D||--------------6-|6---------------|----------------|
A||----------------|----------------|6---------------|
E||4---------------|----------------|----------------|

G||----------------|----------------|----------------|
D||----------------|----------------|----------------|
A||3---------------|----------------|----------------|
E||----------------|3-------------3-|4-4-4-4-4-4-4-4-|

G||----------------|----------------|----------------|
D||----------------|----------------|----------------|
A||----------------|----------------|----------------|
E||--6-6-8-------6-|4---------------|--6-6-8-------8-|

G||----------------|----------------|----------------|
D||----------------|----------------|----------------|
A||----------------|----------------|----------------|
E||4-----4-4-------|--6-6-8-------8-|4-----4-4-----4-|

G||----------------|----------------|
D||----------------|----------------|
A||----------------|----------------|
E||6-6-6-6-6-6-6-6-|6---------------|

Chorus1
G||----------------|----------------|----------------|
D||----------------|----------------|----------------|
A||6---------------|----------------|----------------|
E||------------6---|4-----------6---|8-----------6---|

G||----------------|----------------|----------------|
D||----------------|----------------|----------------|
A||----------------|6---------------|----------------|
E||4-----------6---|------------6---|4-----------6---|

G||----------------|----------------|----------------|
D||----------------|----------------|----------------|
A||8---------------|----------------|----------------|
E||------------6---|4---------------|----------------|

Verse 2
G||----------------|----------------|----------------|
D||----------------|----------------|--------6-----6-|
A||6---------------|6-------------6-|----------------|
E||--------------6-|----------------|4---------------|

G||----------------|----------------|----------------|
D||6-------6-------|----------------|----------------|
A||----------------|6-----------5---|3---------------|
E||----------------|----------------|----------------|

G||----------------|----------------|----------------|
D||----------------|----------------|----------------|
A||----------------|----------------|----------------|
E||3---------------|4---------------|--6-6-8-8-----6-|

G||----------------|----------------|----------------|
D||----------------|----------------|----------------|
A||----------------|----------------|----------------|
E||4---------------|--6-6-8-8-----8-|4-----4-4-------|

G||----------------|----------------|----------------|
D||----------------|----------------|----------------|
A||----------------|----------------|----------------|
E||--6-6-8-8-----8-|4-----4-4-----4-|6-6-6-6-6-6-6-6-|

G||----------------|
D||----------------|
A||----------------|
E||6---------------|

Chorus 2 and Solo
G| |----------------|----------------|----------------|
D|*|----------------|----------------|----------------|
A|*|6---------------|----------------|----------------|
E| |------------6---|4-----------6---|8-----------6---|
        repeat twice
G||----------------| |----------------|----------------|
D||----------------|*|----------------|----------------|
A||----------------|*|6---------------|----------------|
E||4-----------6---| |------------6---|4-----------6---|

G||----------------|----------------|
D||----------------|----------------|
A||----------------|----------------|
E||8-----------6---|4-----------4---|

Bridge
G||----------------|----------------|----------------|
D||----------------|----------------|----------------|
A||----------------|----------------|6-6---6---6---6\|
E||6-----------6---|4-4---4---4---4-|----------------|

G||----------------|----------------|----------------|
D||----------------|----------------|----------------|
A||3-3---3---3---3-|----------------|----------------|
E||----------------|4-4-4-4-4-4-4-4-|6-6-6-6-6-6-6-6-|

G||----------------|----------------|----------------|
D||----------------|----------------|----------------|
A||----------------|----------------|----------------|
E||6-6-6-6-6-6-6-6-|6---------------|----------------|

Chorus3 
G| |----------------|----------------|----------------|
D|*|----------------|----------------|----------------|
A|*|6---------------|----------------|----------------|
E| |------------6---|4-----------6---|8-----------6---|
        repeat twice
G||----------------| |----------------|----------------|
D||----------------|*|----------------|----------------|
A||----------------|*|6---------------|------------6---|
E||4-----------6---| |------------6---|4---------------|

G||----------------|----------------|----------------|
D||----------------|----------------|----------------|
A||----------------|----------------|6---------------|
E||8-------8---6---|4-----------6---|------------6---|

G||----------------|----------------|----------------|
D||----------------|----------------|----------------|
A||----------------|----------------|----------------|
E||4-----------6---|8-----8-8---6---|4-----------6---|

Outro
G| |----------------|----------------|----------------|
D|*|----------------|----------------|----------------|
A|*|6---------------|----------------|----------------|
E| |------------6---|4-----------6---|8-----------6---|
repeat three times
G||----------------| |
D||----------------|*|
A||----------------|*|
E||4-----------6---| |


It should be fairly close, add your own flair to the boring parts.
each dash represents 1/16th note
            
Submit corrections

comments powered by Disqus
↑ Back to top | Aerosmith Bass for Angel. Lyrics for acoustic guitar and electric guitar. Tablatures and chords are parodies/interpretations of the original songs. You may use it for private study, scholarship, research or language learning purposes only