» » »

Aerosmith, Adam's Apple Bass tabs (ver.1)

Artists:  A B C D E F G H I J K L M N O P Q R S T U V W X Y Z # 

Adam's Apple Bass tabs (ver.1)

Aerosmith Tabs
Rating:
0/5 (0 votes)
Adam's Apple lessons Tabs too difficult? Try these video lessons and learn fast
                Band: Aerosmith
Bassist: Tom Hamilton
Tuning: EADG

I saw this site had no bass tab for this song, so I copied the one from 
Intro:


G--------------------------|---------------|-------------------------------------------|
D--------------------------|---------------|-------------4--5--4--------------4--5--4--|
A--------------------------|---------------|-------4--7-----------------4--7-----------|
E--------------------------|--1------------|-5--5-----------------5--5-----------------|

Verse:

G---------------------------------|-------------------------------------|
D---------------------------------|-------------------------------------|
A---------------------------------|-----------------5----5-4-3-2--------|
E-5-5-5-5-5-5-5-5-5-5-5-5-5-5-5-5-|-5-5-5-5-5-5-5-5---------------------|

G---------------------------------|-------------------------------------------------------|
D---------------------------------|--------------4--5--4--------------4--5--4-------------|
A-2--2-2---2-2----2--2-2---2-2----|--------4--7----------------4--7-----------------------|
E--------2------2--------2-----2--|--5--5---------------5--5------------------------------|

G---------------------------------|-------------------------------------|
D---------------------------------|-------------------------------------|
A---------------------------------|-----------------5----5-4-3-2--------|
E-5-5-5-5-5-5-5-5-5-5-5-5-5-5-5-5-|-5-5-5-5-5-5-5-5---------------------|

G---------------------------------|
D---------------------------------|
A-2--2-2---2-2----2--2-2---2-2----|
E--------2------2--------2-----2--|

Pre-Chorus:

G----------------------|--------------------------|
D----------------------|--------------------------|
A-------------4--5--4--|--------------------------|
E-0--0--4--7-----------|-0-0-0-0-0-0-0-0----------|

Chorus:

G-------------4--5--4-|---------------------------------------------------------------|
D-------4--7----------|----------------------------4--5--4--------------4--5--4-------|
A-5--5----------------|-8-8----8----8--------4--7-----------------4--7----------------|
E---------------------|------8----8----5--5-----------------5--5----------------------|

G-------------4--5--4-|----------------------------------|----------------------------|
D-------4--7----------|----------------------------------|----------------------------|
A-5--5----------------|-10-10-----10-----10--9-----9-----|---------------0------------|
E---------------------|--------10-----10-------7-9---7-9-|-0-0-0-0-0-0-0--------------|

Verse:

G---------------------------------|-------------------------------------|
D---------------------------------|-------------------------------------|
A---------------------------------|-----------------5----5-4-3-2--------|
E-5-5-5-5-5-5-5-5-5-5-5-5-5-5-5-5-|-5-5-5-5-5-5-5-5---------------------|

G---------------------------------|-------------------------------------------------------|
D---------------------------------|--------------4--5--4--------------4--5--4-------------|
A-2--2-2---2-2----2--2-2---2-2----|--------4--7----------------4--7-----------------------|
E--------2------2--------2-----2--|--5--5---------------5--5------------------------------|

G---------------------------------|-------------------------------------|
D---------------------------------|-------------------------------------|
A---------------------------------|-----------------5----5-4-3-2--------|
E-5-5-5-5-5-5-5-5-5-5-5-5-5-5-5-5-|-5-5-5-5-5-5-5-5---------------------|

G---------------------------------|
D---------------------------------|
A-2--2-2---2-2----2--2-2---2-2----|
E--------2------2--------2-----2--|

Pre-Chorus:

G----------------------|--------------------------|
D----------------------|--------------------------|
A-------------4--5--4--|--------------------------|
E-0--0--4--7-----------|-0-0-0-0-0-0-0-0----------|

Chorus:

G-------------4--5--4-|---------------------------------------------------------------|
D-------4--7----------|----------------------------4--5--4--------------4--5--4-------|
A-5--5----------------|-8-8----8----8--------4--7-----------------4--7----------------|
E---------------------|------8----8----5--5-----------------5--5----------------------|

G-------------4--5--4-|----------------------------------|----------------------------|
D-------4--7----------|----------------------------------|----------------------------|
A-5--5----------------|-10-10-----10-----10--9-----9-----|---------------0------------|
E---------------------|--------10-----10-------7-9---7-9-|-0-0-0-0-0-0-0--------------|

G-------------------------------------------|-----------------------------------------|
D-------------------------------------------|-----------------------------------------|
A-------7-----4--5--4--------7-----4--5--4--|--------7-----4--5--4------7----4--5--4--|
E-0--0-----0-----------0--0-----0-----------|--0--0-----0-----------0-0---0-----------|

Bridge:

G---------------------------------|---------------------------------------------------|
D---------------------------------|---------------------------------------------------|
A---------------------------------|---------------------------------------------------|
E-0-0-0-0-0-0-0-0-0-0-0-0-0-0-0-0-|-0-0-0-0-0-0-0-5----5-4-3-2------------------------|

G--------------------------------|----------------------------------------------------|
D--------------------------------|----------------------------------------------------|
A--------------------------------|-------------4--5--4--------------4--5--4-----------|
E-2--2-2-0-2-2--0--2--2-2-2--2-2-|-0--0--4--7-----------0--0--4--7--------------------|

G---------------------------------|---------------------------------------------------|
D---------------------------------|---------------------------------------------------|
A---------------------------------|---------------------------------------------------|
E-0-0-0-0-0-0-0-0-0-0-0-0-0-0-0-0-|-0-0-0-0-0-0-0-5----5-4-3-2------------------------|

G--------------------------------|----------------------------------------------------|
D--------------------------------|----------------------------------------------------|
A--------------------------------|-2-2-2-2-2-2-2-2-2-2-2-2-2-2-2-2--------------------|
E-2--2-2-0-2-2--0--2--2-2-2--2-2-|----------------------------------------------------|

G----------------------------------4--5--4--|-----------------------------------------|
D-------------4--5--4--------4--7-----------|-----------------------------------------|
A-------4--7-----------5--5-----------------|--------------4--5--4-------------4--5--4|
E-5--5--------------------------------------|--0--0--4--7-----------0--0--4--7--------|

G----------------------------------4--5--4--|-----------------------------1--2--1-----|
D-------------4--5--4--------4--7-----------|-----------------------1--4--------------|
A-------4--7-----------5--5-----------------|--4--4----4---4--2--2--------------------|
E-5--5--------------------------------------|--------4---4----------------------------|

G---------------------------------|---------------------------------------------------|
D---------------------------------|---------------------------------------------------|
A---------------------------------|------------------------------------------3--------|
E-0-0-0-0-0-0-0-0-0-0-0-0-0-0-0-0-|-0-0-0-0-0-0-0-5--------5--------5-----------------|

Verse:

G---------------------------------|-------------------------------------|
D---------------------------------|-------------------------------------|
A---------------------------------|-----------------5----5-4-3-2--------|
E-5-5-5-5-5-5-5-5-5-5-5-5-5-5-5-5-|-5-5-5-5-5-5-5-5---------------------|

G---------------------------------|-------------------------------------------------------|
D---------------------------------|--------------4--5--4--------------4--5--4-------------|
A-2--2-2---2-2----2--2-2---2-2----|--------4--7----------------4--7-----------------------|
E--------2------2--------2-----2--|--5--5---------------5--5------------------------------|

G---------------------------------|-------------------------------------|
D---------------------------------|-------------------------------------|
A---------------------------------|-----------------5----5-4-3-2--------|
E-5-5-5-5-5-5-5-5-5-5-5-5-5-5-5-5-|-5-5-5-5-5-5-5-5---------------------|

G---------------------------------|
D---------------------------------|
A-2--2-2---2-2----2--2-2---2-2----|
E--------2------2--------2-----2--|

Pre-Chorus:

G----------------------|--------------------------|
D----------------------|--------------------------|
A-------------4--5--4--|--------------------------|
E-0--0--4--7-----------|-0-0-0-0-0-0-0-0----------|

Chorus:

G-------------4--5--4-|---------------------------------------------------------------|
D-------4--7----------|----------------------------4--5--4--------------4--5--4-------|
A-5--5----------------|-8-8----8----8--------4--7-----------------4--7----------------|
E---------------------|------8----8----5--5-----------------5--5----------------------|

G-------------4--5--4-|----------------------------------|-------------4--5--4--------|
D-------4--7----------|----------------------------------|-------4--7-----------------|
A-5--5----------------|-10-10-----10-----10--9-----9-----|-5--5-----------------------|
E---------------------|--------10-----10-------7-9---7-9-|----------------------------|

G--------------------------------------|----------------------|--------------4--5--4--|
D------------------------------4--5--4-|-------------4--5--4--|--------4--7-----------|
A-8--8-----8----8--------4--7----------|-------4--7-----------|--5--5-----------------|
E-------8-----8----5--5----------------|-5--5-----------------|-----------------------|

G------------------------|---------------------|
D------------------------|---------------------|
A-10--10------10-----10--|--9-----9------------|
E---------10------10-----|----7-9----7-9-------|

G-------------------------------------------|-----------------------------------------|
D-------------------------------------------|-----------------------------------------|
A-------7-----4--5--4--------7-----4--5--4--|--------7-----4--5--4------7----4--5--4--|
E-0--0-----0-----------0--0-----0-----------|--0--0-----0-----------0-0---0-----------|

G------------------------------------------|------------------------------------------|
D------------------------------------------|------------------------------------------|
A-------7-----4--5--4--------7-----4--5--4-|-------7-----4--5---------7-----4--5--4--0|
E-0--0-----0-----------0--0-----0----------|-0--0-----0-------0-0--0-----0------------|


All is right !
            
Submit corrections

comments powered by Disqus
↑ Back to top | Aerosmith Bass for Adam's Apple. Lyrics for acoustic guitar and electric guitar. Tablatures and chords are parodies/interpretations of the original songs. You may use it for private study, scholarship, research or language learning purposes only