>
 >
Adams Apple

Adams Apple Bass Tabs

Aerosmith - Adams Apple chords, tabs, tablatures, lyrics

Guitar lessons | Add/correct | Request | Top 50 tabs Artists:  A B C D E F G H I J K L M N O P Q R S T U V W X Y Z 0-9

Adams Apple Bass Tabs – Aerosmith

CD, Sheet music, Poster

Do you like Adams Apple? Share with your friends now
Bass Tabs
This goes way back when Aerosmith used to be a rock band.


Tuning: EADG

Time signature: 4/4

r = rest (listen for duration)
h = hammer on
p = pull off
/ = slide (low to high)
()= note inside parenthesis not plucked or hammered on
||= measure gets repeated (see number of times above measure, e.g. 4x)

*My tabs are meant to be read in conjunction with listening to the song.
In other words, there are no specific notations to account for note/rest duration. 
However, you will find that I've made an attempt to strategically space the notes 
and rests within their respective measures in order to represent the appropriate 
durations.


INTRO

   3x (Guitar Intro)
G||--------------------------------||--------------------------------|
D||r-------------------------------||3-------------------------------|
A||--------------------------------||--------------------------------|
E||--------------------------------||1-------------------------------|


  2x
||--------------------------------|--------------------------------||
||--------------------4---5---4---|--------------------4---5---4---||
||------------4---7---------------|------------4---7---------------||
||5-------5-----------------------|5-------5-----------------------||



VERSE 1
                                 
|--------------------------------|--------------------------------|
|--------------------------------|--------------------------------|
|--------------------------------|--------------------------------|
|5---5---5---5---5---5---5---5---|5---5---5---5---5---5---5---5---|


                                   
|--------------------------------|--------------------------------|
|--------------------------------|--------------------------------|
|--------------------------------|5-------------------5---4---3---|
|5---5---5---5---5---5---5---5---|--------------------------------|



|--------------------------------|--------------------------------|
|--------------------------------|--------------------------------|
|2-------2---2-------2---2-------|2-------2---2-------2---2-------|
|----------------2-----------2---|----------------2-----------2---|



|--------------------------------|--------------------------------|
|--------------------4---5---4---|--------------------4---5---4---|
|------------4---7---------------|------------4---7---------------|
|5-------5-----------------------|5-------5-----------------------|



VERSE 2

|--------------------------------|--------------------------------|
|--------------------------------|--------------------------------|
|--------------------------------|--------------------------------|
|5---5---5---5---5---5---5---5---|5---5---5---5---5---5---5---5---|


                                   
|--------------------------------|--------------------------------|
|--------------------------------|--------------------------------|
|--------------------------------|5-------------------5---4---3---|
|5---5---5---5---5---5---5---5---|--------------------------------|



|--------------------------------|--------------------------------|
|--------------------------------|--------------------------------|
|2-------2---2-------2---2-------|2-------2---2-------2---2-------|
|----------------2-----------2---|----------------2-----------2---|



|--------------------------------|--------------------------------|
|--------------------------------|--------------------------------|
|--------------------4---5---4---|--------------------4---5---4---|
|0-------0---4---7---------------|0-------0---4---7---------------|



CHORUS

|--------------------4---5---4---|---------------------7------------|
|------------4---7---------------|------------7---10-------10-------|
|5-------5-----------------------|8-------8---------------------8---|
|--------------------------------|----------------------------------|



|--------------------------------|--------------------------------|
|--------------------4---5---4---|--------------------4---5---4---|
|------------4---7---------------|------------4---7---------------|
|5-------5-----------------------|5-------5-----------------------|



|--------------------4---5---4---|--------------------------------|
|------------4---7---------------|5-------5-------5---5-------5---|
|5-------5-----------------------|------------5-----------5-------|
|--------------------------------|--------------------------------|



|--------------------------------|--------------------------------|
|------------------------4-------|--------------------------------|
|----------------2---4-------4---|--------------------4---5---4---|
|2-------2---5-------------------|0-------0---4---7---------------|


  2x
||--------------------------------|--------------------------------||
||--------------------------------|--------------------------------||
||--------------------------------|--------------------------------||
||5-------------------------------|--------------------------------||



[VERSE 1]


[VERSE 2]



CHORUS 2

|--------------------4---5---4---|---------------------7------------|
|------------4---7---------------|------------7---10-------10-------|
|5-------5-----------------------|8-------8---------------------8---|
|--------------------------------|----------------------------------|



|--------------------------------|--------------------------------|
|--------------------4---5---4---|--------------------4---5---4---|
|------------4---7---------------|------------4---7---------------|
|5-------5-----------------------|5-------5-----------------------|



|--------------------4---5---4---|--------------------------------|
|------------4---7---------------|5-------5-------5---5-------5---|
|5-------5-----------------------|------------5-----------5-------|
|--------------------------------|--------------------------------|



|--------------------------------|--------------------------------|
|------------------------4-------|--------------------------------|
|----------------2---4-------4---|------------7-------4---4---5---|
|2-------2---5-------------------|0-------0-----------------------|



|--------------------------------|--------------------------------|
|----------------------------5---|--------------------------------|
|------------7-------4---5-------|------------7-------4---4-------|
|0-------0-----------------------|0-------0-------------------0---|



|--------------------------------|
|----------------------------5---|
|------------7-------4---5-------|
|0-------0-----------------------|



BRIDGE

|--------------------------------|--------------------------------|
|--------------------------------|--------------------------------|
|--------------------------------|--------------------------------|
|0---0---0---0---0---0---0---0---|0---0---0---0---0---0---0---0---|



|--------------------------------|--------------------------------|
|--------------------------------|--------------------------------|
|--------------------------------|--------------------------------|
|0---0---0---0---0---0---0---0---|5-------------------5---4---3---|



|--------------------------------|--------------------------------|
|--------------------------------|--------------------------------|
|--------------------------------|--------------------------------|
|2-------2---2---0---2---2---0---|2-------2---2---0---2---2---0---|



|--------------------------------|--------------------------------|
|--------------------------------|--------------------------------|
|--------------------4---5---4---|--------------------4---5---4---|
|0-------0---4---7---------------|0-------0---4---7---------------|



|--------------------------------|--------------------------------|
|--------------------------------|--------------------------------|
|--------------------------------|--------------------------------|
|0---0---0---0---0---0---0---0---|0---0---0---0---0---0---0---0---|



|--------------------------------|--------------------------------|
|--------------------------------|--------------------------------|
|--------------------------------|--------------------------------|
|0---0---0---0---0---0---0---0---|5-------------------5---4---3---|



|----------------------------------|--------------------------------|
|--------------------1/(2)-1-------|--------------------2---1-------|
|------------1---4-------------4---|------------1---4-----------4---|
|2-------2-------------------------|2-------2-----------------------|



|--------------------1h2p1h2p1---|--------------------1---2---1---|
|------------1---4---------------|------------1---4---------------|
|2-------2-----------------------|2-------2-----------------------|
|--------------------------------|--------------------------------|



|--------------------------------|--------------------2---3---2---|
|--------------------4---5---4---|------------2---5---------------|
|------------4---7---------------|3-------3-----------------------|
|5-------5-----------------------|--------------------------------|



|--------------------------------|--------------------------------|
|--------------------------------|--------------------------------|
|--------------------4---5---4---|--------------------4---5---4---|
|0-------0---4---7---------------|0-------0---4---7---------------|



|--------------------------------|--------------------4---5---4---|
|--------------------4---5---4---|------------4---7---------------|
|------------4---7---------------|5-------5-----------------------|
|5-------5-----------------------|--------------------------------|



|--------------------3---4---3---|--------------------1---2---1---|
|------------3---6---------------|------------1---4---------------|
|4-------4-----------------------|2-------2-----------------------|
|--------------------------------|--------------------------------|



|--------------------------------|--------------------------------|
|--------------------------------|--------------------------------|
|--------------------------------|--------------------------------|
|0---0---0---0---0---0---0---0---|0---0---0---0---0---0---0---0---|



|--------------------------------|--------------------------------|
|--------------------------------|--------------------------------|
|--------------------------------|--------------------------------|
|0---0---0---0---0---0---0---0---|5-------r-----------------------|



|--------------------------------|--------------------------------|
|--------------------------------|--------------------------------|
|--------------------------------|--------------------------------|
|5-------r-----------------------|5-------r-----------------------|


                                   4x
|--------------------------------||--------------------------------||
|--------------------------------||--------------------4---5---4---||
|3-------------------------------||------------4---7---------------||
|--------------------------------||5-------5-----------------------||



[VERSE 1]



[VERSE 2]



CHORUS 3

|--------------------4---5---4---|---------------------7------------|
|------------4---7---------------|------------7---10-------10-------|
|5-------5-----------------------|8-------8---------------------8---|
|--------------------------------|----------------------------------|



|--------------------------------|--------------------------------|
|--------------------4---5---4---|--------------------4---5---4---|
|------------4---7---------------|------------4---7---------------|
|5-------5-----------------------|5-------5-----------------------|



|--------------------4---5---4---|--------------------------------|
|------------4---7---------------|5-------5-------5---5-------5---|
|5-------5-----------------------|------------5-----------5-------|
|--------------------------------|--------------------------------|



|--------------------------------|--------------------------------|
|------------------------4-------|--------------------------------|
|----------------2---4-------4---|--------------------4---5---4---|
|2-------2---5-------------------|0-------0---4---7---------------|



|--------------------4---5---4---|---------------------7------------|
|------------4---7---------------|------------7---10-------10-------|
|5-------5-----------------------|8-------8---------------------8---|
|--------------------------------|----------------------------------|



|--------------------------------|--------------------------------|
|--------------------4---5---4---|--------------------4---5---4---|
|------------4---7---------------|------------4---7---------------|
|5-------5-----------------------|5-------5-----------------------|



|--------------------4---5---4---|--------------------------------|
|------------4---7---------------|5-------5-------5---5-------5---|
|5-------5-----------------------|------------5-----------5-------|
|--------------------------------|--------------------------------|



|--------------------------------|
|------------------------4-------|
|----------------2---4-------4---|
|2-------2---5-------------------|



OUTRO

|--------------------------------|--------------------------------|
|--------------------------------|----------------------------5---|
|------------7-------4---4---5---|------------7-------4---5-------|
|0-------0-----------------------|0-------0-----------------------|



|--------------------------------|--------------------------------|
|--------------------------------|--------------------------------|
|------------7-------4---4---5---|--------------------------------|
|0-------0-----------------------|5-------------------------------|


    (PLEASE RATE THIS TAB / LEAVE COMMENT)





Comments


Popular Aerosmith tabs & chords
Home Tonight 2 Bass Tabs
Last Child Bass Tabs
Love In An Elevator 2 Bass Tabs
Milkcow Blues Bass Tabs
Lets Fight Chords
Beyond Beautiful Tabs
Dude (Looks Like A Lady) Tabs
Livin On The Edge 2 Tabs
Subway Tabs
Write Me A Letter 2 Tabs


Song lyrics



↑ Back to top | Tablatures and chords are parodies/interpretations of the original songs. You may use it for private study, scholarship, research or language learning purposes only
© 2014 AZChords.com Contact us | Privacy policy | DMCA | Add/correct tabs | Request tabs | Top 50 tabs